  0
SECTION
  2
HEADER
  9
$ACADVER
  1
AC1009
  9
$EXTMIN
 10
0.0
 20
0.0
 30
0.0
  9
$EXTMAX
 10
1000.0
 20
1000.0
 30
0.0
  9
$FILLMODE
 70
 0
  9
$SPLFRAME
 70
 1
  0
ENDSEC
  0
SECTION
  2
TABLES
  0
TABLE
  2
LAYER
 70
1
  0
LAYER
  2
0
 70
     0
 62
     7
  6
CONTINUOUS
  0
ENDTAB
  0
ENDSEC
  0
SECTION
  2
ENTITIES
  0
POLYLINE
  8
0
 62
     9
 66
     1
 10
0
 20
0
 30
0.0
 70
     1
 40
0
 41
0
  0
VERTEX
  8
0
 10
4.49387
 20
6.41661
 30
0.0
 40
0
 41
0
  0
VERTEX
  8
0
 10
4.49387
 20
5.99744
 30
0.0
 40
0
 41
0
  0
VERTEX
  8
0
 10
4.93842
 20
5.99744
 30
0.0
 40
0
 41
0
  0
VERTEX
  8
0
 10
4.93685
 20
6.03575
 30
0.0
 40
0
 41
0
  0
VERTEX
  8
0
 10
4.95171
 20
6.15142
 30
0.0
 40
0
 41
0
  0
VERTEX
  8
0
 10
5.00825
 20
6.27376
 30
0.0
 40
0
 41
0
  0
VERTEX
  8
0
 10
5.11236
 20
6.36111
 30
0.0
 40
0
 41
0
  0
VERTEX
  8
0
 10
5.22857
 20
6.40397
 30
0.0
 40
0
 41
0
  0
VERTEX
  8
0
 10
5.26861
 20
6.41026
 30
0.0
 40
0
 41
0
  0
VERTEX
  8
0
 10
5.26861
 20
6.61361
 30
0.0
 40
0
 41
0
  0
VERTEX
  8
0
 10
5.3035
 20
6.63135
 30
0.0
 40
0
 41
0
  0
VERTEX
  8
0
 10
5.40213
 20
6.69646
 30
0.0
 40
0
 41
0
  0
VERTEX
  8
0
 10
5.50672
 20
6.79378
 30
0.0
 40
0
 41
0
  0
VERTEX
  8
0
 10
5.58356
 20
6.905
 30
0.0
 40
0
 41
0
  0
VERTEX
  8
0
 10
5.63374
 20
7.02951
 30
0.0
 40
0
 41
0
  0
VERTEX
  8
0
 10
5.65858
 20
7.16672
 30
0.0
 40
0
 41
0
  0
VERTEX
  8
0
 10
5.65918
 20
7.31608
 30
0.0
 40
0
 41
0
  0
VERTEX
  8
0
 10
5.63672
 20
7.47689
 30
0.0
 40
0
 41
0
  0
VERTEX
  8
0
 10
5.60558
 20
7.60633
 30
0.0
 40
0
 41
0
  0
VERTEX
  8
0
 10
5.5925
 20
7.6486
 30
0.0
 40
0
 41
0
  0
VERTEX
  8
0
 10
5.66336
 20
7.6684
 30
0.0
 40
0
 41
0
  0
VERTEX
  8
0
 10
5.87056
 20
7.74718
 30
0.0
 40
0
 41
0
  0
VERTEX
  8
0
 10
6.08535
 20
7.86643
 30
0.0
 40
0
 41
0
  0
VERTEX
  8
0
 10
6.24615
 20
8.00369
 30
0.0
 40
0
 41
0
  0
VERTEX
  8
0
 10
6.36214
 20
8.15625
 30
0.0
 40
0
 41
0
  0
VERTEX
  8
0
 10
6.44265
 20
8.3215
 30
0.0
 40
0
 41
0
  0
VERTEX
  8
0
 10
6.49685
 20
8.49669
 30
0.0
 40
0
 41
0
  0
VERTEX
  8
0
 10
6.53396
 20
8.67919
 30
0.0
 40
0
 41
0
  0
VERTEX
  8
0
 10
6.56332
 20
8.86632
 30
0.0
 40
0
 41
0
  0
VERTEX
  8
0
 10
6.59403
 20
9.05533
 30
0.0
 40
0
 41
0
  0
VERTEX
  8
0
 10
6.63536
 20
9.24365
 30
0.0
 40
0
 41
0
  0
VERTEX
  8
0
 10
6.69667
 20
9.42854
 30
0.0
 40
0
 41
0
  0
VERTEX
  8
0
 10
6.78706
 20
9.60732
 30
0.0
 40
0
 41
0
  0
VERTEX
  8
0
 10
6.91581
 20
9.77729
 30
0.0
 40
0
 41
0
  0
VERTEX
  8
0
 10
7.09212
 20
9.93582
 30
0.0
 40
0
 41
0
  0
VERTEX
  8
0
 10
7.32536
 20
10.0802
 30
0.0
 40
0
 41
0
  0
VERTEX
  8
0
 10
7.54807
 20
10.1808
 30
0.0
 40
0
 41
0
  0
VERTEX
  8
0
 10
7.62463
 20
10.2078
 30
0.0
 40
0
 41
0
  0
VERTEX
  8
0
 10
7.62463
 20
10.5254
 30
0.0
 40
0
 41
0
  0
VERTEX
  8
0
 10
6.98324
 20
10.4936
 30
0.0
 40
0
 41
0
  0
VERTEX
  8
0
 10
4.49387
 20
6.41661
 30
0.0
 40
0
 41
0
  0
SEQEND
 8
0
  0
POLYLINE
  8
0
 62
     0
 66
     1
 10
0
 20
0
 30
0.0
 70
     1
 40
1.00006
 41
1.00006
  0
VERTEX
  8
0
 10
4.49387
 20
6.41661
 30
0.0
 40
0.0138897
 41
0.0138897
  0
VERTEX
  8
0
 10
4.49387
 20
5.99744
 30
0.0
 40
0.0138897
 41
0.0138897
  0
VERTEX
  8
0
 10
4.93842
 20
5.99744
 30
0.0
 40
0.0138897
 41
0.0138897
  0
VERTEX
  8
0
 10
4.93685
 20
6.03575
 30
0.0
 40
0.0138897
 41
0.0138897
  0
VERTEX
  8
0
 10
4.95171
 20
6.15142
 30
0.0
 40
0.0138897
 41
0.0138897
  0
VERTEX
  8
0
 10
5.00825
 20
6.27376
 30
0.0
 40
0.0138897
 41
0.0138897
  0
VERTEX
  8
0
 10
5.11236
 20
6.36111
 30
0.0
 40
0.0138897
 41
0.0138897
  0
VERTEX
  8
0
 10
5.22857
 20
6.40397
 30
0.0
 40
0.0138897
 41
0.0138897
  0
VERTEX
  8
0
 10
5.26861
 20
6.41026
 30
0.0
 40
0.0138897
 41
0.0138897
  0
VERTEX
  8
0
 10
5.26861
 20
6.61361
 30
0.0
 40
0.0138897
 41
0.0138897
  0
VERTEX
  8
0
 10
5.3035
 20
6.63135
 30
0.0
 40
0.0138897
 41
0.0138897
  0
VERTEX
  8
0
 10
5.40213
 20
6.69646
 30
0.0
 40
0.0138897
 41
0.0138897
  0
VERTEX
  8
0
 10
5.50672
 20
6.79378
 30
0.0
 40
0.0138897
 41
0.0138897
  0
VERTEX
  8
0
 10
5.58356
 20
6.905
 30
0.0
 40
0.0138897
 41
0.0138897
  0
VERTEX
  8
0
 10
5.63374
 20
7.02951
 30
0.0
 40
0.0138897
 41
0.0138897
  0
VERTEX
  8
0
 10
5.65858
 20
7.16672
 30
0.0
 40
0.0138897
 41
0.0138897
  0
VERTEX
  8
0
 10
5.65918
 20
7.31608
 30
0.0
 40
0.0138897
 41
0.0138897
  0
VERTEX
  8
0
 10
5.63672
 20
7.47689
 30
0.0
 40
0.0138897
 41
0.0138897
  0
VERTEX
  8
0
 10
5.60558
 20
7.60633
 30
0.0
 40
0.0138897
 41
0.0138897
  0
VERTEX
  8
0
 10
5.5925
 20
7.6486
 30
0.0
 40
0.0138897
 41
0.0138897
  0
VERTEX
  8
0
 10
5.66336
 20
7.6684
 30
0.0
 40
0.0138897
 41
0.0138897
  0
VERTEX
  8
0
 10
5.87056
 20
7.74718
 30
0.0
 40
0.0138897
 41
0.0138897
  0
VERTEX
  8
0
 10
6.08535
 20
7.86643
 30
0.0
 40
0.0138897
 41
0.0138897
  0
VERTEX
  8
0
 10
6.24615
 20
8.00369
 30
0.0
 40
0.0138897
 41
0.0138897
  0
VERTEX
  8
0
 10
6.36214
 20
8.15625
 30
0.0
 40
0.0138897
 41
0.0138897
  0
VERTEX
  8
0
 10
6.44265
 20
8.3215
 30
0.0
 40
0.0138897
 41
0.0138897
  0
VERTEX
  8
0
 10
6.49685
 20
8.49669
 30
0.0
 40
0.0138897
 41
0.0138897
  0
VERTEX
  8
0
 10
6.53396
 20
8.67919
 30
0.0
 40
0.0138897
 41
0.0138897
  0
VERTEX
  8
0
 10
6.56332
 20
8.86632
 30
0.0
 40
0.0138897
 41
0.0138897
  0
VERTEX
  8
0
 10
6.59403
 20
9.05533
 30
0.0
 40
0.0138897
 41
0.0138897
  0
VERTEX
  8
0
 10
6.63536
 20
9.24365
 30
0.0
 40
0.0138897
 41
0.0138897
  0
VERTEX
  8
0
 10
6.69667
 20
9.42854
 30
0.0
 40
0.0138897
 41
0.0138897
  0
VERTEX
  8
0
 10
6.78706
 20
9.60732
 30
0.0
 40
0.0138897
 41
0.0138897
  0
VERTEX
  8
0
 10
6.91581
 20
9.77729
 30
0.0
 40
0.0138897
 41
0.0138897
  0
VERTEX
  8
0
 10
7.09212
 20
9.93582
 30
0.0
 40
0.0138897
 41
0.0138897
  0
VERTEX
  8
0
 10
7.32536
 20
10.0802
 30
0.0
 40
0.0138897
 41
0.0138897
  0
VERTEX
  8
0
 10
7.54807
 20
10.1808
 30
0.0
 40
0.0138897
 41
0.0138897
  0
VERTEX
  8
0
 10
7.62463
 20
10.2078
 30
0.0
 40
0.0138897
 41
0.0138897
  0
VERTEX
  8
0
 10
7.62463
 20
10.5254
 30
0.0
 40
0.0138897
 41
0.0138897
  0
VERTEX
  8
0
 10
6.98324
 20
10.4936
 30
0.0
 40
0.0138897
 41
0.0138897
  0
VERTEX
  8
0
 10
4.49387
 20
6.41661
 30
0.0
 40
0.0138897
 41
0.0138897
  0
SEQEND
 8
0
  0
POLYLINE
  8
0
 62
     0
 66
     1
 10
0
 20
0
 30
0.0
 70
     1
 40
0.50003
 41
0.50003
  0
VERTEX
  8
0
 10
4.48822
 20
7.01639
 30
0.0
 40
0.00694486
 41
0.00694486
  0
VERTEX
  8
0
 10
4.48822
 20
6.93257
 30
0.0
 40
0.00694486
 41
0.00694486
  0
VERTEX
  8
0
 10
4.5771
 20
6.93257
 30
0.0
 40
0.00694486
 41
0.00694486
  0
VERTEX
  8
0
 10
4.57676
 20
6.94026
 30
0.0
 40
0.00694486
 41
0.00694486
  0
VERTEX
  8
0
 10
4.57975
 20
6.96338
 30
0.0
 40
0.00694486
 41
0.00694486
  0
VERTEX
  8
0
 10
4.59104
 20
6.98785
 30
0.0
 40
0.00694486
 41
0.00694486
  0
VERTEX
  8
0
 10
4.61187
 20
7.00532
 30
0.0
 40
0.00694486
 41
0.00694486
  0
VERTEX
  8
0
 10
4.63514
 20
7.01389
 30
0.0
 40
0.00694486
 41
0.00694486
  0
VERTEX
  8
0
 10
4.64318
 20
7.01514
 30
0.0
 40
0.00694486
 41
0.00694486
  0
VERTEX
  8
0
 10
4.64318
 20
7.05578
 30
0.0
 40
0.00694486
 41
0.00694486
  0
VERTEX
  8
0
 10
4.65625
 20
7.06244
 30
0.0
 40
0.00694486
 41
0.00694486
  0
VERTEX
  8
0
 10
4.69075
 20
7.09185
 30
0.0
 40
0.00694486
 41
0.00694486
  0
VERTEX
  8
0
 10
4.71615
 20
7.139
 30
0.0
 40
0.00694486
 41
0.00694486
  0
VERTEX
  8
0
 10
4.72125
 20
7.19635
 30
0.0
 40
0.00694486
 41
0.00694486
  0
VERTEX
  8
0
 10
4.71289
 20
7.24675
 30
0.0
 40
0.00694486
 41
0.00694486
  0
VERTEX
  8
0
 10
4.70796
 20
7.26281
 30
0.0
 40
0.00694486
 41
0.00694486
  0
VERTEX
  8
0
 10
4.73361
 20
7.26997
 30
0.0
 40
0.00694486
 41
0.00694486
  0
VERTEX
  8
0
 10
4.80647
 20
7.30638
 30
0.0
 40
0.00694486
 41
0.00694486
  0
VERTEX
  8
0
 10
4.86187
 20
7.36436
 30
0.0
 40
0.00694486
 41
0.00694486
  0
VERTEX
  8
0
 10
4.88878
 20
7.43246
 30
0.0
 40
0.00694486
 41
0.00694486
  0
VERTEX
  8
0
 10
4.90207
 20
7.50635
 30
0.0
 40
0.00694486
 41
0.00694486
  0
VERTEX
  8
0
 10
4.9165
 20
7.58188
 30
0.0
 40
0.00694486
 41
0.00694486
  0
VERTEX
  8
0
 10
4.94683
 20
7.65457
 30
0.0
 40
0.00694486
 41
0.00694486
  0
VERTEX
  8
0
 10
5.00786
 20
7.72026
 30
0.0
 40
0.00694486
 41
0.00694486
  0
VERTEX
  8
0
 10
5.08643
 20
7.76481
 30
0.0
 40
0.00694486
 41
0.00694486
  0
VERTEX
  8
0
 10
5.11436
 20
7.77463
 30
0.0
 40
0.00694486
 41
0.00694486
  0
VERTEX
  8
0
 10
5.11436
 20
7.83817
 30
0.0
 40
0.00694486
 41
0.00694486
  0
VERTEX
  8
0
 10
4.98606
 20
7.83176
 30
0.0
 40
0.00694486
 41
0.00694486
  0
VERTEX
  8
0
 10
4.48822
 20
7.01639
 30
0.0
 40
0.00694486
 41
0.00694486
  0
SEQEND
 8
0
  0
POLYLINE
  8
0
 62
     0
 66
     1
 10
0
 20
0
 30
0.0
 70
     1
 40
0
 41
0
  0
VERTEX
  8
0
 10
4.35238
 20
7.41092
 30
0.0
 40
0
 41
0
  0
VERTEX
  8
0
 10
4.35915
 20
7.41092
 30
0.0
 40
0
 41
0
  0
VERTEX
  8
0
 10
4.35915
 20
7.40229
 30
0.0
 40
0
 41
0
  0
VERTEX
  8
0
 10
4.37614
 20
7.40229
 30
0.0
 40
0
 41
0
  0
VERTEX
  8
0
 10
4.37614
 20
7.39442
 30
0.0
 40
0
 41
0
  0
VERTEX
  8
0
 10
4.35915
 20
7.39442
 30
0.0
 40
0
 41
0
  0
VERTEX
  8
0
 10
4.35915
 20
7.36719
 30
0.0
 40
0
 41
0
  0
VERTEX
  8
0
 10
4.35308
 20
7.36719
 30
0.0
 40
0
 41
0
  0
VERTEX
  8
0
 10
4.31044
 20
7.39708
 30
0.0
 40
0
 41
0
  0
VERTEX
  8
0
 10
4.31044
 20
7.40229
 30
0.0
 40
0
 41
0
  0
VERTEX
  8
0
 10
4.35238
 20
7.40229
 30
0.0
 40
0
 41
0
  0
VERTEX
  8
0
 10
4.35238
 20
7.41092
 30
0.0
 40
0
 41
0
  0
SEQEND
 8
0
  0
POLYLINE
  8
0
 62
     0
 66
     1
 10
0
 20
0
 30
0.0
 70
     1
 40
0
 41
0
  0
VERTEX
  8
0
 10
4.35238
 20
7.39442
 30
0.0
 40
0
 41
0
  0
VERTEX
  8
0
 10
4.32042
 20
7.39442
 30
0.0
 40
0
 41
0
  0
VERTEX
  8
0
 10
4.35238
 20
7.37185
 30
0.0
 40
0
 41
0
  0
VERTEX
  8
0
 10
4.35238
 20
7.39442
 30
0.0
 40
0
 41
0
  0
SEQEND
 8
0
  0
POLYLINE
  8
0
 62
     0
 66
     1
 10
0
 20
0
 30
0.0
 70
     1
 40
0
 41
0
  0
VERTEX
  8
0
 10
4.35075
 20
7.41824
 30
0.0
 40
0
 41
0
  0
VERTEX
  8
0
 10
4.35075
 20
7.44276
 30
0.0
 40
0
 41
0
  0
VERTEX
  8
0
 10
4.35792
 20
7.44276
 30
0.0
 40
0
 41
0
  0
VERTEX
  8
0
 10
4.35792
 20
7.41824
 30
0.0
 40
0
 41
0
  0
VERTEX
  8
0
 10
4.35075
 20
7.41824
 30
0.0
 40
0
 41
0
  0
SEQEND
 8
0
  0
POLYLINE
  8
0
 62
     0
 66
     1
 10
0
 20
0
 30
0.0
 70
     1
 40
0
 41
0
  0
VERTEX
  8
0
 10
4.31808
 20
7.45806
 30
0.0
 40
0
 41
0
  0
VERTEX
  8
0
 10
4.31044
 20
7.47374
 30
0.0
 40
0
 41
0
  0
VERTEX
  8
0
 10
4.31044
 20
7.47532
 30
0.0
 40
0
 41
0
  0
VERTEX
  8
0
 10
4.36481
 20
7.47532
 30
0.0
 40
0
 41
0
  0
VERTEX
  8
0
 10
4.36649
 20
7.47532
 30
0.0
 40
0
 41
0
  0
VERTEX
  8
0
 10
4.37131
 20
7.47569
 30
0.0
 40
0
 41
0
  0
VERTEX
  8
0
 10
4.37153
 20
7.47575
 30
0.0
 40
0
 41
0
  0
VERTEX
  8
0
 10
4.37175
 20
7.47586
 30
0.0
 40
0
 41
0
  0
VERTEX
  8
0
 10
4.37343
 20
7.47737
 30
0.0
 40
0
 41
0
  0
VERTEX
  8
0
 10
4.37358
 20
7.4776
 30
0.0
 40
0
 41
0
  0
VERTEX
  8
0
 10
4.37369
 20
7.47786
 30
0.0
 40
0
 41
0
  0
VERTEX
  8
0
 10
4.37435
 20
7.48269
 30
0.0
 40
0
 41
0
  0
VERTEX
  8
0
 10
4.3744
 20
7.4834
 30
0.0
 40
0
 41
0
  0
VERTEX
  8
0
 10
4.37614
 20
7.4834
 30
0.0
 40
0
 41
0
  0
VERTEX
  8
0
 10
4.37614
 20
7.45921
 30
0.0
 40
0
 41
0
  0
VERTEX
  8
0
 10
4.3744
 20
7.45921
 30
0.0
 40
0
 41
0
  0
VERTEX
  8
0
 10
4.37435
 20
7.45996
 30
0.0
 40
0
 41
0
  0
VERTEX
  8
0
 10
4.37369
 20
7.4649
 30
0.0
 40
0
 41
0
  0
VERTEX
  8
0
 10
4.37358
 20
7.46511
 30
0.0
 40
0
 41
0
  0
VERTEX
  8
0
 10
4.37349
 20
7.46533
 30
0.0
 40
0
 41
0
  0
VERTEX
  8
0
 10
4.3719
 20
7.4669
 30
0.0
 40
0
 41
0
  0
VERTEX
  8
0
 10
4.37175
 20
7.46696
 30
0.0
 40
0
 41
0
  0
VERTEX
  8
0
 10
4.37153
 20
7.46707
 30
0.0
 40
0
 41
0
  0
VERTEX
  8
0
 10
4.36649
 20
7.46744
 30
0.0
 40
0
 41
0
  0
VERTEX
  8
0
 10
4.36481
 20
7.46744
 30
0.0
 40
0
 41
0
  0
VERTEX
  8
0
 10
4.33003
 20
7.46744
 30
0.0
 40
0
 41
0
  0
VERTEX
  8
0
 10
4.32775
 20
7.46744
 30
0.0
 40
0
 41
0
  0
VERTEX
  8
0
 10
4.32135
 20
7.46707
 30
0.0
 40
0
 41
0
  0
VERTEX
  8
0
 10
4.32101
 20
7.46696
 30
0.0
 40
0
 41
0
  0
VERTEX
  8
0
 10
4.32075
 20
7.4669
 30
0.0
 40
0
 41
0
  0
VERTEX
  8
0
 10
4.3189
 20
7.46593
 30
0.0
 40
0
 41
0
  0
VERTEX
  8
0
 10
4.31879
 20
7.46576
 30
0.0
 40
0
 41
0
  0
VERTEX
  8
0
 10
4.31863
 20
7.46565
 30
0.0
 40
0
 41
0
  0
VERTEX
  8
0
 10
4.31808
 20
7.46419
 30
0.0
 40
0
 41
0
  0
VERTEX
  8
0
 10
4.31808
 20
7.46365
 30
0.0
 40
0
 41
0
  0
VERTEX
  8
0
 10
4.31808
 20
7.46246
 30
0.0
 40
0
 41
0
  0
VERTEX
  8
0
 10
4.31928
 20
7.45931
 30
0.0
 40
0
 41
0
  0
VERTEX
  8
0
 10
4.31956
 20
7.45876
 30
0.0
 40
0
 41
0
  0
VERTEX
  8
0
 10
4.31808
 20
7.45806
 30
0.0
 40
0
 41
0
  0
SEQEND
 8
0
  0
POLYLINE
  8
0
 62
     0
 66
     1
 10
0
 20
0
 30
0.0
 70
     1
 40
0
 41
0
  0
VERTEX
  8
0
 10
4.30865
 20
7.52251
 30
0.0
 40
0
 41
0
  0
VERTEX
  8
0
 10
4.37744
 20
7.49918
 30
0.0
 40
0
 41
0
  0
VERTEX
  8
0
 10
4.37744
 20
7.49544
 30
0.0
 40
0
 41
0
  0
VERTEX
  8
0
 10
4.30865
 20
7.51872
 30
0.0
 40
0
 41
0
  0
VERTEX
  8
0
 10
4.30865
 20
7.52251
 30
0.0
 40
0
 41
0
  0
SEQEND
 8
0
  0
POLYLINE
  8
0
 62
     0
 66
     1
 10
0
 20
0
 30
0.0
 70
     1
 40
0
 41
0
  0
VERTEX
  8
0
 10
4.34369
 20
7.54096
 30
0.0
 40
0
 41
0
  0
VERTEX
  8
0
 10
4.34261
 20
7.53971
 30
0.0
 40
0
 41
0
  0
VERTEX
  8
0
 10
4.33425
 20
7.53147
 30
0.0
 40
0
 41
0
  0
VERTEX
  8
0
 10
4.33365
 20
7.53108
 30
0.0
 40
0
 41
0
  0
VERTEX
  8
0
 10
4.33301
 20
7.53076
 30
0.0
 40
0
 41
0
  0
VERTEX
  8
0
 10
4.32758
 20
7.52886
 30
0.0
 40
0
 41
0
  0
VERTEX
  8
0
 10
4.32579
 20
7.52886
 30
0.0
 40
0
 41
0
  0
VERTEX
  8
0
 10
4.32308
 20
7.52886
 30
0.0
 40
0
 41
0
  0
VERTEX
  8
0
 10
4.31569
 20
7.53293
 30
0.0
 40
0
 41
0
  0
VERTEX
  8
0
 10
4.31494
 20
7.53375
 30
0.0
 40
0
 41
0
  0
VERTEX
  8
0
 10
4.31418
 20
7.53456
 30
0.0
 40
0
 41
0
  0
VERTEX
  8
0
 10
4.31044
 20
7.54362
 30
0.0
 40
0
 41
0
  0
VERTEX
  8
0
 10
4.31044
 20
7.5466
 30
0.0
 40
0
 41
0
  0
VERTEX
  8
0
 10
4.31044
 20
7.54975
 30
0.0
 40
0
 41
0
  0
VERTEX
  8
0
 10
4.31396
 20
7.55838
 30
0.0
 40
0
 41
0
  0
VERTEX
  8
0
 10
4.31467
 20
7.55914
 30
0.0
 40
0
 41
0
  0
VERTEX
  8
0
 10
4.31538
 20
7.55994
 30
0.0
 40
0
 41
0
  0
VERTEX
  8
0
 10
4.32206
 20
7.56386
 30
0.0
 40
0
 41
0
  0
VERTEX
  8
0
 10
4.32433
 20
7.56386
 30
0.0
 40
0
 41
0
  0
VERTEX
  8
0
 10
4.32611
 20
7.56386
 30
0.0
 40
0
 41
0
  0
VERTEX
  8
0
 10
4.331
 20
7.56174
 30
0.0
 40
0
 41
0
  0
VERTEX
  8
0
 10
4.33165
 20
7.56131
 30
0.0
 40
0
 41
0
  0
VERTEX
  8
0
 10
4.33225
 20
7.56093
 30
0.0
 40
0
 41
0
  0
VERTEX
  8
0
 10
4.33963
 20
7.55197
 30
0.0
 40
0
 41
0
  0
VERTEX
  8
0
 10
4.3405
 20
7.55063
 30
0.0
 40
0
 41
0
  0
VERTEX
  8
0
 10
4.34153
 20
7.55203
 30
0.0
 40
0
 41
0
  0
VERTEX
  8
0
 10
4.34999
 20
7.56125
 30
0.0
 40
0
 41
0
  0
VERTEX
  8
0
 10
4.35064
 20
7.56168
 30
0.0
 40
0
 41
0
  0
VERTEX
  8
0
 10
4.35146
 20
7.56228
 30
0.0
 40
0
 41
0
  0
VERTEX
  8
0
 10
4.35846
 20
7.56526
 30
0.0
 40
0
 41
0
  0
VERTEX
  8
0
 10
4.36083
 20
7.56526
 30
0.0
 40
0
 41
0
  0
VERTEX
  8
0
 10
4.36372
 20
7.56526
 30
0.0
 40
0
 41
0
  0
VERTEX
  8
0
 10
4.37164
 20
7.56099
 30
0.0
 40
0
 41
0
  0
VERTEX
  8
0
 10
4.37244
 20
7.56011
 30
0.0
 40
0
 41
0
  0
VERTEX
  8
0
 10
4.37321
 20
7.55925
 30
0.0
 40
0
 41
0
  0
VERTEX
  8
0
 10
4.37728
 20
7.54975
 30
0.0
 40
0
 41
0
  0
VERTEX
  8
0
 10
4.37728
 20
7.54656
 30
0.0
 40
0
 41
0
  0
VERTEX
  8
0
 10
4.37728
 20
7.54297
 30
0.0
 40
0
 41
0
  0
VERTEX
  8
0
 10
4.37244
 20
7.5331
 30
0.0
 40
0
 41
0
  0
VERTEX
  8
0
 10
4.37153
 20
7.53222
 30
0.0
 40
0
 41
0
  0
VERTEX
  8
0
 10
4.37071
 20
7.53157
 30
0.0
 40
0
 41
0
  0
VERTEX
  8
0
 10
4.36376
 20
7.52815
 30
0.0
 40
0
 41
0
  0
VERTEX
  8
0
 10
4.36149
 20
7.52815
 30
0.0
 40
0
 41
0
  0
VERTEX
  8
0
 10
4.35932
 20
7.52815
 30
0.0
 40
0
 41
0
  0
VERTEX
  8
0
 10
4.35368
 20
7.5306
 30
0.0
 40
0
 41
0
  0
VERTEX
  8
0
 10
4.35297
 20
7.53103
 30
0.0
 40
0
 41
0
  0
VERTEX
  8
0
 10
4.35226
 20
7.53153
 30
0.0
 40
0
 41
0
  0
VERTEX
  8
0
 10
4.34451
 20
7.53982
 30
0.0
 40
0
 41
0
  0
VERTEX
  8
0
 10
4.34369
 20
7.54096
 30
0.0
 40
0
 41
0
  0
SEQEND
 8
0
  0
POLYLINE
  8
0
 62
     0
 66
     1
 10
0
 20
0
 30
0.0
 70
     1
 40
0
 41
0
  0
VERTEX
  8
0
 10
4.33865
 20
7.54839
 30
0.0
 40
0
 41
0
  0
VERTEX
  8
0
 10
4.33778
 20
7.54937
 30
0.0
 40
0
 41
0
  0
VERTEX
  8
0
 10
4.33106
 20
7.55539
 30
0.0
 40
0
 41
0
  0
VERTEX
  8
0
 10
4.33057
 20
7.55561
 30
0.0
 40
0
 41
0
  0
VERTEX
  8
0
 10
4.33003
 20
7.55588
 30
0.0
 40
0
 41
0
  0
VERTEX
  8
0
 10
4.32536
 20
7.55712
 30
0.0
 40
0
 41
0
  0
VERTEX
  8
0
 10
4.32383
 20
7.55712
 30
0.0
 40
0
 41
0
  0
VERTEX
  8
0
 10
4.32189
 20
7.55712
 30
0.0
 40
0
 41
0
  0
VERTEX
  8
0
 10
4.31646
 20
7.55485
 30
0.0
 40
0
 41
0
  0
VERTEX
  8
0
 10
4.31603
 20
7.55436
 30
0.0
 40
0
 41
0
  0
VERTEX
  8
0
 10
4.31554
 20
7.55393
 30
0.0
 40
0
 41
0
  0
VERTEX
  8
0
 10
4.31321
 20
7.54856
 30
0.0
 40
0
 41
0
  0
VERTEX
  8
0
 10
4.31321
 20
7.54671
 30
0.0
 40
0
 41
0
  0
VERTEX
  8
0
 10
4.31321
 20
7.54476
 30
0.0
 40
0
 41
0
  0
VERTEX
  8
0
 10
4.31549
 20
7.53933
 30
0.0
 40
0
 41
0
  0
VERTEX
  8
0
 10
4.31597
 20
7.53879
 30
0.0
 40
0
 41
0
  0
VERTEX
  8
0
 10
4.3164
 20
7.53831
 30
0.0
 40
0
 41
0
  0
VERTEX
  8
0
 10
4.32096
 20
7.53575
 30
0.0
 40
0
 41
0
  0
VERTEX
  8
0
 10
4.32254
 20
7.53575
 30
0.0
 40
0
 41
0
  0
VERTEX
  8
0
 10
4.32374
 20
7.53575
 30
0.0
 40
0
 41
0
  0
VERTEX
  8
0
 10
4.32704
 20
7.53683
 30
0.0
 40
0
 41
0
  0
VERTEX
  8
0
 10
4.32747
 20
7.53706
 30
0.0
 40
0
 41
0
  0
VERTEX
  8
0
 10
4.32785
 20
7.53728
 30
0.0
 40
0
 41
0
  0
VERTEX
  8
0
 10
4.33182
 20
7.54025
 30
0.0
 40
0
 41
0
  0
VERTEX
  8
0
 10
4.33219
 20
7.54064
 30
0.0
 40
0
 41
0
  0
VERTEX
  8
0
 10
4.33865
 20
7.54839
 30
0.0
 40
0
 41
0
  0
SEQEND
 8
0
  0
POLYLINE
  8
0
 62
     0
 66
     1
 10
0
 20
0
 30
0.0
 70
     1
 40
0
 41
0
  0
VERTEX
  8
0
 10
4.34549
 20
7.54318
 30
0.0
 40
0
 41
0
  0
VERTEX
  8
0
 10
4.34603
 20
7.54254
 30
0.0
 40
0
 41
0
  0
VERTEX
  8
0
 10
4.35211
 20
7.53765
 30
0.0
 40
0
 41
0
  0
VERTEX
  8
0
 10
4.35275
 20
7.53733
 30
0.0
 40
0
 41
0
  0
VERTEX
  8
0
 10
4.3534
 20
7.53706
 30
0.0
 40
0
 41
0
  0
VERTEX
  8
0
 10
4.35926
 20
7.53543
 30
0.0
 40
0
 41
0
  0
VERTEX
  8
0
 10
4.36122
 20
7.53543
 30
0.0
 40
0
 41
0
  0
VERTEX
  8
0
 10
4.36367
 20
7.53543
 30
0.0
 40
0
 41
0
  0
VERTEX
  8
0
 10
4.37039
 20
7.53825
 30
0.0
 40
0
 41
0
  0
VERTEX
  8
0
 10
4.37104
 20
7.53879
 30
0.0
 40
0
 41
0
  0
VERTEX
  8
0
 10
4.37164
 20
7.53939
 30
0.0
 40
0
 41
0
  0
VERTEX
  8
0
 10
4.37472
 20
7.54536
 30
0.0
 40
0
 41
0
  0
VERTEX
  8
0
 10
4.37472
 20
7.54731
 30
0.0
 40
0
 41
0
  0
VERTEX
  8
0
 10
4.37472
 20
7.54937
 30
0.0
 40
0
 41
0
  0
VERTEX
  8
0
 10
4.37229
 20
7.55501
 30
0.0
 40
0
 41
0
  0
VERTEX
  8
0
 10
4.37181
 20
7.5555
 30
0.0
 40
0
 41
0
  0
VERTEX
  8
0
 10
4.37131
 20
7.55604
 30
0.0
 40
0
 41
0
  0
VERTEX
  8
0
 10
4.36643
 20
7.5586
 30
0.0
 40
0
 41
0
  0
VERTEX
  8
0
 10
4.36481
 20
7.5586
 30
0.0
 40
0
 41
0
  0
VERTEX
  8
0
 10
4.36322
 20
7.5586
 30
0.0
 40
0
 41
0
  0
VERTEX
  8
0
 10
4.3591
 20
7.55712
 30
0.0
 40
0
 41
0
  0
VERTEX
  8
0
 10
4.35867
 20
7.55681
 30
0.0
 40
0
 41
0
  0
VERTEX
  8
0
 10
4.35781
 20
7.55626
 30
0.0
 40
0
 41
0
  0
VERTEX
  8
0
 10
4.34685
 20
7.54492
 30
0.0
 40
0
 41
0
  0
VERTEX
  8
0
 10
4.34549
 20
7.54318
 30
0.0
 40
0
 41
0
  0
SEQEND
 8
0
  0
POLYLINE
  8
0
 62
     0
 66
     1
 10
0
 20
0
 30
0.0
 70
     1
 40
0
 41
0
  0
VERTEX
  8
0
 10
4.62631
 20
7.96739
 30
0.0
 40
0
 41
0
  0
VERTEX
  8
0
 10
4.62674
 20
7.96847
 30
0.0
 40
0
 41
0
  0
VERTEX
  8
0
 10
4.63254
 20
7.97689
 30
0.0
 40
0
 41
0
  0
VERTEX
  8
0
 10
4.63325
 20
7.97743
 30
0.0
 40
0
 41
0
  0
VERTEX
  8
0
 10
4.6339
 20
7.97803
 30
0.0
 40
0
 41
0
  0
VERTEX
  8
0
 10
4.64122
 20
7.98101
 30
0.0
 40
0
 41
0
  0
VERTEX
  8
0
 10
4.64372
 20
7.98101
 30
0.0
 40
0
 41
0
  0
VERTEX
  8
0
 10
4.64665
 20
7.98101
 30
0.0
 40
0
 41
0
  0
VERTEX
  8
0
 10
4.65483
 20
7.97683
 30
0.0
 40
0
 41
0
  0
VERTEX
  8
0
 10
4.65554
 20
7.97597
 30
0.0
 40
0
 41
0
  0
VERTEX
  8
0
 10
4.65603
 20
7.97537
 30
0.0
 40
0
 41
0
  0
VERTEX
  8
0
 10
4.65869
 20
7.96983
 30
0.0
 40
0
 41
0
  0
VERTEX
  8
0
 10
4.65869
 20
7.96793
 30
0.0
 40
0
 41
0
  0
VERTEX
  8
0
 10
4.65869
 20
7.96431
 30
0.0
 40
0
 41
0
  0
VERTEX
  8
0
 10
4.65132
 20
7.95464
 30
0.0
 40
0
 41
0
  0
VERTEX
  8
0
 10
4.64985
 20
7.9534
 30
0.0
 40
0
 41
0
  0
VERTEX
  8
0
 10
4.65082
 20
7.95301
 30
0.0
 40
0
 41
0
  0
VERTEX
  8
0
 10
4.65831
 20
7.94754
 30
0.0
 40
0
 41
0
  0
VERTEX
  8
0
 10
4.65886
 20
7.94678
 30
0.0
 40
0
 41
0
  0
VERTEX
  8
0
 10
4.65935
 20
7.94607
 30
0.0
 40
0
 41
0
  0
VERTEX
  8
0
 10
4.66189
 20
7.93896
 30
0.0
 40
0
 41
0
  0
VERTEX
  8
0
 10
4.66189
 20
7.93658
 30
0.0
 40
0
 41
0
  0
VERTEX
  8
0
 10
4.66189
 20
7.933
 30
0.0
 40
0
 41
0
  0
VERTEX
  8
0
 10
4.65744
 20
7.92318
 30
0.0
 40
0
 41
0
  0
VERTEX
  8
0
 10
4.65657
 20
7.92215
 30
0.0
 40
0
 41
0
  0
VERTEX
  8
0
 10
4.65539
 20
7.92085
 30
0.0
 40
0
 41
0
  0
VERTEX
  8
0
 10
4.64122
 20
7.91417
 30
0.0
 40
0
 41
0
  0
VERTEX
  8
0
 10
4.6365
 20
7.91417
 30
0.0
 40
0
 41
0
  0
VERTEX
  8
0
 10
4.63428
 20
7.91417
 30
0.0
 40
0
 41
0
  0
VERTEX
  8
0
 10
4.62799
 20
7.91553
 30
0.0
 40
0
 41
0
  0
VERTEX
  8
0
 10
4.62761
 20
7.91575
 30
0.0
 40
0
 41
0
  0
VERTEX
  8
0
 10
4.62722
 20
7.91601
 30
0.0
 40
0
 41
0
  0
VERTEX
  8
0
 10
4.62528
 20
7.91846
 30
0.0
 40
0
 41
0
  0
VERTEX
  8
0
 10
4.62528
 20
7.91922
 30
0.0
 40
0
 41
0
  0
VERTEX
  8
0
 10
4.62528
 20
7.91986
 30
0.0
 40
0
 41
0
  0
VERTEX
  8
0
 10
4.62619
 20
7.9215
 30
0.0
 40
0
 41
0
  0
VERTEX
  8
0
 10
4.62642
 20
7.92165
 30
0.0
 40
0
 41
0
  0
VERTEX
  8
0
 10
4.62657
 20
7.92188
 30
0.0
 40
0
 41
0
  0
VERTEX
  8
0
 10
4.62842
 20
7.92269
 30
0.0
 40
0
 41
0
  0
VERTEX
  8
0
 10
4.62907
 20
7.92269
 30
0.0
 40
0
 41
0
  0
VERTEX
  8
0
 10
4.62967
 20
7.92269
 30
0.0
 40
0
 41
0
  0
VERTEX
  8
0
 10
4.63129
 20
7.92242
 30
0.0
 40
0
 41
0
  0
VERTEX
  8
0
 10
4.63151
 20
7.92231
 30
0.0
 40
0
 41
0
  0
VERTEX
  8
0
 10
4.63162
 20
7.92231
 30
0.0
 40
0
 41
0
  0
VERTEX
  8
0
 10
4.63465
 20
7.92085
 30
0.0
 40
0
 41
0
  0
VERTEX
  8
0
 10
4.63514
 20
7.92057
 30
0.0
 40
0
 41
0
  0
VERTEX
  8
0
 10
4.63558
 20
7.92036
 30
0.0
 40
0
 41
0
  0
VERTEX
  8
0
 10
4.63889
 20
7.91883
 30
0.0
 40
0
 41
0
  0
VERTEX
  8
0
 10
4.63911
 20
7.91878
 30
0.0
 40
0
 41
0
  0
VERTEX
  8
0
 10
4.63938
 20
7.91872
 30
0.0
 40
0
 41
0
  0
VERTEX
  8
0
 10
4.64199
 20
7.91829
 30
0.0
 40
0
 41
0
  0
VERTEX
  8
0
 10
4.64285
 20
7.91829
 30
0.0
 40
0
 41
0
  0
VERTEX
  8
0
 10
4.64492
 20
7.91829
 30
0.0
 40
0
 41
0
  0
VERTEX
  8
0
 10
4.65067
 20
7.92144
 30
0.0
 40
0
 41
0
  0
VERTEX
  8
0
 10
4.65126
 20
7.92204
 30
0.0
 40
0
 41
0
  0
VERTEX
  8
0
 10
4.65186
 20
7.92269
 30
0.0
 40
0
 41
0
  0
VERTEX
  8
0
 10
4.65483
 20
7.92888
 30
0.0
 40
0
 41
0
  0
VERTEX
  8
0
 10
4.65483
 20
7.93093
 30
0.0
 40
0
 41
0
  0
VERTEX
  8
0
 10
4.65483
 20
7.93278
 30
0.0
 40
0
 41
0
  0
VERTEX
  8
0
 10
4.65349
 20
7.93767
 30
0.0
 40
0
 41
0
  0
VERTEX
  8
0
 10
4.65321
 20
7.93821
 30
0.0
 40
0
 41
0
  0
VERTEX
  8
0
 10
4.653
 20
7.93869
 30
0.0
 40
0
 41
0
  0
VERTEX
  8
0
 10
4.65072
 20
7.94206
 30
0.0
 40
0
 41
0
  0
VERTEX
  8
0
 10
4.6505
 20
7.94228
 30
0.0
 40
0
 41
0
  0
VERTEX
  8
0
 10
4.65012
 20
7.9426
 30
0.0
 40
0
 41
0
  0
VERTEX
  8
0
 10
4.64546
 20
7.94547
 30
0.0
 40
0
 41
0
  0
VERTEX
  8
0
 10
4.64486
 20
7.94569
 30
0.0
 40
0
 41
0
  0
VERTEX
  8
0
 10
4.64426
 20
7.94596
 30
0.0
 40
0
 41
0
  0
VERTEX
  8
0
 10
4.63926
 20
7.94726
 30
0.0
 40
0
 41
0
  0
VERTEX
  8
0
 10
4.63764
 20
7.94726
 30
0.0
 40
0
 41
0
  0
VERTEX
  8
0
 10
4.63607
 20
7.94726
 30
0.0
 40
0
 41
0
  0
VERTEX
  8
0
 10
4.63607
 20
7.94868
 30
0.0
 40
0
 41
0
  0
VERTEX
  8
0
 10
4.63667
 20
7.94879
 30
0.0
 40
0
 41
0
  0
VERTEX
  8
0
 10
4.64296
 20
7.95101
 30
0.0
 40
0
 41
0
  0
VERTEX
  8
0
 10
4.64361
 20
7.95139
 30
0.0
 40
0
 41
0
  0
VERTEX
  8
0
 10
4.64421
 20
7.95176
 30
0.0
 40
0
 41
0
  0
VERTEX
  8
0
 10
4.64876
 20
7.95628
 30
0.0
 40
0
 41
0
  0
VERTEX
  8
0
 10
4.64908
 20
7.95676
 30
0.0
 40
0
 41
0
  0
VERTEX
  8
0
 10
4.64936
 20
7.95731
 30
0.0
 40
0
 41
0
  0
VERTEX
  8
0
 10
4.65082
 20
7.96203
 30
0.0
 40
0
 41
0
  0
VERTEX
  8
0
 10
4.65082
 20
7.9636
 30
0.0
 40
0
 41
0
  0
VERTEX
  8
0
 10
4.65082
 20
7.9656
 30
0.0
 40
0
 41
0
  0
VERTEX
  8
0
 10
4.64822
 20
7.97103
 30
0.0
 40
0
 41
0
  0
VERTEX
  8
0
 10
4.64774
 20
7.97151
 30
0.0
 40
0
 41
0
  0
VERTEX
  8
0
 10
4.64719
 20
7.97206
 30
0.0
 40
0
 41
0
  0
VERTEX
  8
0
 10
4.64187
 20
7.9745
 30
0.0
 40
0
 41
0
  0
VERTEX
  8
0
 10
4.64014
 20
7.9745
 30
0.0
 40
0
 41
0
  0
VERTEX
  8
0
 10
4.63704
 20
7.9745
 30
0.0
 40
0
 41
0
  0
VERTEX
  8
0
 10
4.62864
 20
7.96799
 30
0.0
 40
0
 41
0
  0
VERTEX
  8
0
 10
4.62782
 20
7.96664
 30
0.0
 40
0
 41
0
  0
VERTEX
  8
0
 10
4.62631
 20
7.96739
 30
0.0
 40
0
 41
0
  0
SEQEND
 8
0
  0
POLYLINE
  8
0
 62
     0
 66
     1
 10
0
 20
0
 30
0.0
 70
     1
 40
0
 41
0
  0
VERTEX
  8
0
 10
4.67389
 20
7.94069
 30
0.0
 40
0
 41
0
  0
VERTEX
  8
0
 10
4.6984
 20
7.94069
 30
0.0
 40
0
 41
0
  0
VERTEX
  8
0
 10
4.6984
 20
7.93354
 30
0.0
 40
0
 41
0
  0
VERTEX
  8
0
 10
4.67389
 20
7.93354
 30
0.0
 40
0
 41
0
  0
VERTEX
  8
0
 10
4.67389
 20
7.94069
 30
0.0
 40
0
 41
0
  0
SEQEND
 8
0
  0
POLYLINE
  8
0
 62
     0
 66
     1
 10
0
 20
0
 30
0.0
 70
     1
 40
0
 41
0
  0
VERTEX
  8
0
 10
4.71371
 20
7.97336
 30
0.0
 40
0
 41
0
  0
VERTEX
  8
0
 10
4.72939
 20
7.98101
 30
0.0
 40
0
 41
0
  0
VERTEX
  8
0
 10
4.73096
 20
7.98101
 30
0.0
 40
0
 41
0
  0
VERTEX
  8
0
 10
4.73096
 20
7.92665
 30
0.0
 40
0
 41
0
  0
VERTEX
  8
0
 10
4.73096
 20
7.92497
 30
0.0
 40
0
 41
0
  0
VERTEX
  8
0
 10
4.73128
 20
7.92014
 30
0.0
 40
0
 41
0
  0
VERTEX
  8
0
 10
4.73139
 20
7.91986
 30
0.0
 40
0
 41
0
  0
VERTEX
  8
0
 10
4.73144
 20
7.91965
 30
0.0
 40
0
 41
0
  0
VERTEX
  8
0
 10
4.73301
 20
7.91803
 30
0.0
 40
0
 41
0
  0
VERTEX
  8
0
 10
4.73329
 20
7.91786
 30
0.0
 40
0
 41
0
  0
VERTEX
  8
0
 10
4.73351
 20
7.91775
 30
0.0
 40
0
 41
0
  0
VERTEX
  8
0
 10
4.73828
 20
7.9171
 30
0.0
 40
0
 41
0
  0
VERTEX
  8
0
 10
4.73904
 20
7.91704
 30
0.0
 40
0
 41
0
  0
VERTEX
  8
0
 10
4.73904
 20
7.91531
 30
0.0
 40
0
 41
0
  0
VERTEX
  8
0
 10
4.71485
 20
7.91531
 30
0.0
 40
0
 41
0
  0
VERTEX
  8
0
 10
4.71485
 20
7.91704
 30
0.0
 40
0
 41
0
  0
VERTEX
  8
0
 10
4.7156
 20
7.9171
 30
0.0
 40
0
 41
0
  0
VERTEX
  8
0
 10
4.72049
 20
7.91769
 30
0.0
 40
0
 41
0
  0
VERTEX
  8
0
 10
4.72076
 20
7.91781
 30
0.0
 40
0
 41
0
  0
VERTEX
  8
0
 10
4.72097
 20
7.91797
 30
0.0
 40
0
 41
0
  0
VERTEX
  8
0
 10
4.7225
 20
7.91949
 30
0.0
 40
0
 41
0
  0
VERTEX
  8
0
 10
4.7226
 20
7.91965
 30
0.0
 40
0
 41
0
  0
VERTEX
  8
0
 10
4.72265
 20
7.91986
 30
0.0
 40
0
 41
0
  0
VERTEX
  8
0
 10
4.7231
 20
7.92497
 30
0.0
 40
0
 41
0
  0
VERTEX
  8
0
 10
4.7231
 20
7.92665
 30
0.0
 40
0
 41
0
  0
VERTEX
  8
0
 10
4.7231
 20
7.96137
 30
0.0
 40
0
 41
0
  0
VERTEX
  8
0
 10
4.7231
 20
7.96365
 30
0.0
 40
0
 41
0
  0
VERTEX
  8
0
 10
4.72271
 20
7.97006
 30
0.0
 40
0
 41
0
  0
VERTEX
  8
0
 10
4.72265
 20
7.97038
 30
0.0
 40
0
 41
0
  0
VERTEX
  8
0
 10
4.72254
 20
7.97065
 30
0.0
 40
0
 41
0
  0
VERTEX
  8
0
 10
4.72151
 20
7.9725
 30
0.0
 40
0
 41
0
  0
VERTEX
  8
0
 10
4.7214
 20
7.9726
 30
0.0
 40
0
 41
0
  0
VERTEX
  8
0
 10
4.72125
 20
7.97276
 30
0.0
 40
0
 41
0
  0
VERTEX
  8
0
 10
4.71978
 20
7.97336
 30
0.0
 40
0
 41
0
  0
VERTEX
  8
0
 10
4.71929
 20
7.97336
 30
0.0
 40
0
 41
0
  0
VERTEX
  8
0
 10
4.71804
 20
7.97336
 30
0.0
 40
0
 41
0
  0
VERTEX
  8
0
 10
4.7149
 20
7.97211
 30
0.0
 40
0
 41
0
  0
VERTEX
  8
0
 10
4.71442
 20
7.97185
 30
0.0
 40
0
 41
0
  0
VERTEX
  8
0
 10
4.71371
 20
7.97336
 30
0.0
 40
0
 41
0
  0
SEQEND
 8
0
  0
POLYLINE
  8
0
 62
     0
 66
     1
 10
0
 20
0
 30
0.0
 70
     1
 40
0
 41
0
  0
VERTEX
  8
0
 10
4.77815
 20
7.98281
 30
0.0
 40
0
 41
0
  0
VERTEX
  8
0
 10
4.75489
 20
7.91396
 30
0.0
 40
0
 41
0
  0
VERTEX
  8
0
 10
4.75108
 20
7.91396
 30
0.0
 40
0
 41
0
  0
VERTEX
  8
0
 10
4.77436
 20
7.98281
 30
0.0
 40
0
 41
0
  0
VERTEX
  8
0
 10
4.77815
 20
7.98281
 30
0.0
 40
0
 41
0
  0
SEQEND
 8
0
  0
POLYLINE
  8
0
 62
     0
 66
     1
 10
0
 20
0
 30
0.0
 70
     1
 40
0
 41
0
  0
VERTEX
  8
0
 10
4.7966
 20
7.94769
 30
0.0
 40
0
 41
0
  0
VERTEX
  8
0
 10
4.79531
 20
7.94879
 30
0.0
 40
0
 41
0
  0
VERTEX
  8
0
 10
4.78706
 20
7.95719
 30
0.0
 40
0
 41
0
  0
VERTEX
  8
0
 10
4.78674
 20
7.95779
 30
0.0
 40
0
 41
0
  0
VERTEX
  8
0
 10
4.78635
 20
7.95844
 30
0.0
 40
0
 41
0
  0
VERTEX
  8
0
 10
4.78456
 20
7.96386
 30
0.0
 40
0
 41
0
  0
VERTEX
  8
0
 10
4.78456
 20
7.96565
 30
0.0
 40
0
 41
0
  0
VERTEX
  8
0
 10
4.78456
 20
7.96838
 30
0.0
 40
0
 41
0
  0
VERTEX
  8
0
 10
4.78857
 20
7.97569
 30
0.0
 40
0
 41
0
  0
VERTEX
  8
0
 10
4.78939
 20
7.97646
 30
0.0
 40
0
 41
0
  0
VERTEX
  8
0
 10
4.79015
 20
7.97721
 30
0.0
 40
0
 41
0
  0
VERTEX
  8
0
 10
4.79921
 20
7.98101
 30
0.0
 40
0
 41
0
  0
VERTEX
  8
0
 10
4.80225
 20
7.98101
 30
0.0
 40
0
 41
0
  0
VERTEX
  8
0
 10
4.80533
 20
7.98101
 30
0.0
 40
0
 41
0
  0
VERTEX
  8
0
 10
4.81396
 20
7.97749
 30
0.0
 40
0
 41
0
  0
VERTEX
  8
0
 10
4.81478
 20
7.97678
 30
0.0
 40
0
 41
0
  0
VERTEX
  8
0
 10
4.81554
 20
7.97607
 30
0.0
 40
0
 41
0
  0
VERTEX
  8
0
 10
4.8195
 20
7.9694
 30
0.0
 40
0
 41
0
  0
VERTEX
  8
0
 10
4.8195
 20
7.96712
 30
0.0
 40
0
 41
0
  0
VERTEX
  8
0
 10
4.8195
 20
7.96528
 30
0.0
 40
0
 41
0
  0
VERTEX
  8
0
 10
4.81739
 20
7.96039
 30
0.0
 40
0
 41
0
  0
VERTEX
  8
0
 10
4.81694
 20
7.95975
 30
0.0
 40
0
 41
0
  0
VERTEX
  8
0
 10
4.81651
 20
7.95915
 30
0.0
 40
0
 41
0
  0
VERTEX
  8
0
 10
4.80761
 20
7.95182
 30
0.0
 40
0
 41
0
  0
VERTEX
  8
0
 10
4.80626
 20
7.95096
 30
0.0
 40
0
 41
0
  0
VERTEX
  8
0
 10
4.80761
 20
7.94987
 30
0.0
 40
0
 41
0
  0
VERTEX
  8
0
 10
4.81685
 20
7.9414
 30
0.0
 40
0
 41
0
  0
VERTEX
  8
0
 10
4.81733
 20
7.94075
 30
0.0
 40
0
 41
0
  0
VERTEX
  8
0
 10
4.81793
 20
7.94
 30
0.0
 40
0
 41
0
  0
VERTEX
  8
0
 10
4.82096
 20
7.93294
 30
0.0
 40
0
 41
0
  0
VERTEX
  8
0
 10
4.82096
 20
7.93056
 30
0.0
 40
0
 41
0
  0
VERTEX
  8
0
 10
4.82096
 20
7.92768
 30
0.0
 40
0
 41
0
  0
VERTEX
  8
0
 10
4.81662
 20
7.91976
 30
0.0
 40
0
 41
0
  0
VERTEX
  8
0
 10
4.81575
 20
7.91894
 30
0.0
 40
0
 41
0
  0
VERTEX
  8
0
 10
4.81489
 20
7.91818
 30
0.0
 40
0
 41
0
  0
VERTEX
  8
0
 10
4.80533
 20
7.91417
 30
0.0
 40
0
 41
0
  0
VERTEX
  8
0
 10
4.80219
 20
7.91417
 30
0.0
 40
0
 41
0
  0
VERTEX
  8
0
 10
4.79861
 20
7.91417
 30
0.0
 40
0
 41
0
  0
VERTEX
  8
0
 10
4.78874
 20
7.91894
 30
0.0
 40
0
 41
0
  0
VERTEX
  8
0
 10
4.78792
 20
7.91986
 30
0.0
 40
0
 41
0
  0
VERTEX
  8
0
 10
4.78722
 20
7.92068
 30
0.0
 40
0
 41
0
  0
VERTEX
  8
0
 10
4.78381
 20
7.92768
 30
0.0
 40
0
 41
0
  0
VERTEX
  8
0
 10
4.78381
 20
7.92996
 30
0.0
 40
0
 41
0
  0
VERTEX
  8
0
 10
4.78381
 20
7.93207
 30
0.0
 40
0
 41
0
  0
VERTEX
  8
0
 10
4.78624
 20
7.93772
 30
0.0
 40
0
 41
0
  0
VERTEX
  8
0
 10
4.78674
 20
7.93842
 30
0.0
 40
0
 41
0
  0
VERTEX
  8
0
 10
4.78717
 20
7.93913
 30
0.0
 40
0
 41
0
  0
VERTEX
  8
0
 10
4.79542
 20
7.94689
 30
0.0
 40
0
 41
0
  0
VERTEX
  8
0
 10
4.7966
 20
7.94769
 30
0.0
 40
0
 41
0
  0
SEQEND
 8
0
  0
POLYLINE
  8
0
 62
     0
 66
     1
 10
0
 20
0
 30
0.0
 70
     1
 40
0
 41
0
  0
VERTEX
  8
0
 10
4.80404
 20
7.95281
 30
0.0
 40
0
 41
0
  0
VERTEX
  8
0
 10
4.80496
 20
7.95367
 30
0.0
 40
0
 41
0
  0
VERTEX
  8
0
 10
4.81099
 20
7.96039
 30
0.0
 40
0
 41
0
  0
VERTEX
  8
0
 10
4.81125
 20
7.96089
 30
0.0
 40
0
 41
0
  0
VERTEX
  8
0
 10
4.81147
 20
7.96137
 30
0.0
 40
0
 41
0
  0
VERTEX
  8
0
 10
4.81278
 20
7.9661
 30
0.0
 40
0
 41
0
  0
VERTEX
  8
0
 10
4.81278
 20
7.96761
 30
0.0
 40
0
 41
0
  0
VERTEX
  8
0
 10
4.81278
 20
7.96957
 30
0.0
 40
0
 41
0
  0
VERTEX
  8
0
 10
4.81044
 20
7.97499
 30
0.0
 40
0
 41
0
  0
VERTEX
  8
0
 10
4.81
 20
7.97542
 30
0.0
 40
0
 41
0
  0
VERTEX
  8
0
 10
4.80951
 20
7.97592
 30
0.0
 40
0
 41
0
  0
VERTEX
  8
0
 10
4.80414
 20
7.97825
 30
0.0
 40
0
 41
0
  0
VERTEX
  8
0
 10
4.80236
 20
7.97825
 30
0.0
 40
0
 41
0
  0
VERTEX
  8
0
 10
4.80035
 20
7.97825
 30
0.0
 40
0
 41
0
  0
VERTEX
  8
0
 10
4.79497
 20
7.97592
 30
0.0
 40
0
 41
0
  0
VERTEX
  8
0
 10
4.79449
 20
7.97542
 30
0.0
 40
0
 41
0
  0
VERTEX
  8
0
 10
4.79394
 20
7.97499
 30
0.0
 40
0
 41
0
  0
VERTEX
  8
0
 10
4.79139
 20
7.97043
 30
0.0
 40
0
 41
0
  0
VERTEX
  8
0
 10
4.79139
 20
7.96892
 30
0.0
 40
0
 41
0
  0
VERTEX
  8
0
 10
4.79139
 20
7.96767
 30
0.0
 40
0
 41
0
  0
VERTEX
  8
0
 10
4.79249
 20
7.96436
 30
0.0
 40
0
 41
0
  0
VERTEX
  8
0
 10
4.79269
 20
7.96392
 30
0.0
 40
0
 41
0
  0
VERTEX
  8
0
 10
4.79286
 20
7.96354
 30
0.0
 40
0
 41
0
  0
VERTEX
  8
0
 10
4.79585
 20
7.95964
 30
0.0
 40
0
 41
0
  0
VERTEX
  8
0
 10
4.79628
 20
7.95925
 30
0.0
 40
0
 41
0
  0
VERTEX
  8
0
 10
4.80404
 20
7.95281
 30
0.0
 40
0
 41
0
  0
SEQEND
 8
0
  0
POLYLINE
  8
0
 62
     0
 66
     1
 10
0
 20
0
 30
0.0
 70
     1
 40
0
 41
0
  0
VERTEX
  8
0
 10
4.79883
 20
7.9459
 30
0.0
 40
0
 41
0
  0
VERTEX
  8
0
 10
4.79818
 20
7.94536
 30
0.0
 40
0
 41
0
  0
VERTEX
  8
0
 10
4.79329
 20
7.93935
 30
0.0
 40
0
 41
0
  0
VERTEX
  8
0
 10
4.79297
 20
7.93869
 30
0.0
 40
0
 41
0
  0
VERTEX
  8
0
 10
4.79264
 20
7.93804
 30
0.0
 40
0
 41
0
  0
VERTEX
  8
0
 10
4.79107
 20
7.93218
 30
0.0
 40
0
 41
0
  0
VERTEX
  8
0
 10
4.79107
 20
7.93018
 30
0.0
 40
0
 41
0
  0
VERTEX
  8
0
 10
4.79107
 20
7.92774
 30
0.0
 40
0
 41
0
  0
VERTEX
  8
0
 10
4.79383
 20
7.92106
 30
0.0
 40
0
 41
0
  0
VERTEX
  8
0
 10
4.79443
 20
7.92042
 30
0.0
 40
0
 41
0
  0
VERTEX
  8
0
 10
4.79497
 20
7.91982
 30
0.0
 40
0
 41
0
  0
VERTEX
  8
0
 10
4.80094
 20
7.91672
 30
0.0
 40
0
 41
0
  0
VERTEX
  8
0
 10
4.80296
 20
7.91672
 30
0.0
 40
0
 41
0
  0
VERTEX
  8
0
 10
4.80496
 20
7.91672
 30
0.0
 40
0
 41
0
  0
VERTEX
  8
0
 10
4.8106
 20
7.91911
 30
0.0
 40
0
 41
0
  0
VERTEX
  8
0
 10
4.81114
 20
7.9196
 30
0.0
 40
0
 41
0
  0
VERTEX
  8
0
 10
4.81164
 20
7.92008
 30
0.0
 40
0
 41
0
  0
VERTEX
  8
0
 10
4.81424
 20
7.92503
 30
0.0
 40
0
 41
0
  0
VERTEX
  8
0
 10
4.81424
 20
7.92665
 30
0.0
 40
0
 41
0
  0
VERTEX
  8
0
 10
4.81424
 20
7.92822
 30
0.0
 40
0
 41
0
  0
VERTEX
  8
0
 10
4.81272
 20
7.93235
 30
0.0
 40
0
 41
0
  0
VERTEX
  8
0
 10
4.81244
 20
7.93278
 30
0.0
 40
0
 41
0
  0
VERTEX
  8
0
 10
4.81185
 20
7.93365
 30
0.0
 40
0
 41
0
  0
VERTEX
  8
0
 10
4.80051
 20
7.94456
 30
0.0
 40
0
 41
0
  0
VERTEX
  8
0
 10
4.79883
 20
7.9459
 30
0.0
 40
0
 41
0
  0
SEQEND
 8
0
  0
POLYLINE
  8
0
 62
     0
 66
     1
 10
0
 20
0
 30
0.0
 40
0.504
 41
0.504
  0
VERTEX
  8
0
 10
4.49035
 20
6.95822
 30
0.0
 40
0.007
 41
0.007
  0
VERTEX
  8
0
 10
4.49035
 20
7.83231
 30
0.0
 40
0.007
 41
0.007
  0
VERTEX
  8
0
 10
5.07661
 20
7.8349
 30
0.0
 40
0.007
 41
0.007
  0
SEQEND
 8
0
  0
POLYLINE
  8
0
 62
     8
 66
     1
 10
0
 20
0
 30
0.0
 70
     1
 40
0
 41
0
  0
VERTEX
  8
0
 10
4.49387
 20
5.99744
 30
0.0
 40
0
 41
0
  0
VERTEX
  8
0
 10
4.99387
 20
5.74744
 30
0.0
 40
0
 41
0
  0
VERTEX
  8
0
 10
5.43842
 20
5.74744
 30
0.0
 40
0
 41
0
  0
VERTEX
  8
0
 10
4.93842
 20
5.99744
 30
0.0
 40
0
 41
0
  0
VERTEX
  8
0
 10
4.49387
 20
5.99744
 30
0.0
 40
0
 41
0
  0
SEQEND
 8
0
  0
POLYLINE
  8
0
 62
     0
 66
     1
 10
0
 20
0
 30
0.0
 70
     1
 40
1.00006
 41
1.00006
  0
VERTEX
  8
0
 10
4.49387
 20
5.99744
 30
0.0
 40
0.0138897
 41
0.0138897
  0
VERTEX
  8
0
 10
4.99387
 20
5.74744
 30
0.0
 40
0.0138897
 41
0.0138897
  0
VERTEX
  8
0
 10
5.43842
 20
5.74744
 30
0.0
 40
0.0138897
 41
0.0138897
  0
VERTEX
  8
0
 10
4.93842
 20
5.99744
 30
0.0
 40
0.0138897
 41
0.0138897
  0
VERTEX
  8
0
 10
4.49387
 20
5.99744
 30
0.0
 40
0.0138897
 41
0.0138897
  0
SEQEND
 8
0
  0
POLYLINE
  8
0
 62
     254
 66
     1
 10
0
 20
0
 30
0.0
 70
     1
 40
0
 41
0
  0
VERTEX
  8
0
 10
4.93842
 20
5.99744
 30
0.0
 40
0
 41
0
  0
VERTEX
  8
0
 10
5.43842
 20
5.74744
 30
0.0
 40
0
 41
0
  0
VERTEX
  8
0
 10
5.43788
 20
5.76833
 30
0.0
 40
0
 41
0
  0
VERTEX
  8
0
 10
4.93788
 20
6.01833
 30
0.0
 40
0
 41
0
  0
VERTEX
  8
0
 10
4.93842
 20
5.99744
 30
0.0
 40
0
 41
0
  0
SEQEND
 8
0
  0
POLYLINE
  8
0
 62
     254
 66
     1
 10
0
 20
0
 30
0.0
 70
     1
 40
0
 41
0
  0
VERTEX
  8
0
 10
4.93788
 20
6.01833
 30
0.0
 40
0
 41
0
  0
VERTEX
  8
0
 10
5.43788
 20
5.76833
 30
0.0
 40
0
 41
0
  0
VERTEX
  8
0
 10
5.43793
 20
5.78874
 30
0.0
 40
0
 41
0
  0
VERTEX
  8
0
 10
4.93793
 20
6.03874
 30
0.0
 40
0
 41
0
  0
VERTEX
  8
0
 10
4.93788
 20
6.01833
 30
0.0
 40
0
 41
0
  0
SEQEND
 8
0
  0
POLYLINE
  8
0
 62
     254
 66
     1
 10
0
 20
0
 30
0.0
 70
     1
 40
0
 41
0
  0
VERTEX
  8
0
 10
4.93793
 20
6.03874
 30
0.0
 40
0
 41
0
  0
VERTEX
  8
0
 10
5.43793
 20
5.78874
 30
0.0
 40
0
 41
0
  0
VERTEX
  8
0
 10
5.43864
 20
5.80871
 30
0.0
 40
0
 41
0
  0
VERTEX
  8
0
 10
4.93864
 20
6.05871
 30
0.0
 40
0
 41
0
  0
VERTEX
  8
0
 10
4.93793
 20
6.03874
 30
0.0
 40
0
 41
0
  0
SEQEND
 8
0
  0
POLYLINE
  8
0
 62
     254
 66
     1
 10
0
 20
0
 30
0.0
 70
     1
 40
0
 41
0
  0
VERTEX
  8
0
 10
4.93864
 20
6.05871
 30
0.0
 40
0
 41
0
  0
VERTEX
  8
0
 10
5.43864
 20
5.80871
 30
0.0
 40
0
 41
0
  0
VERTEX
  8
0
 10
5.44
 20
5.82818
 30
0.0
 40
0
 41
0
  0
VERTEX
  8
0
 10
4.94
 20
6.07818
 30
0.0
 40
0
 41
0
  0
VERTEX
  8
0
 10
4.93864
 20
6.05871
 30
0.0
 40
0
 41
0
  0
SEQEND
 8
0
  0
POLYLINE
  8
0
 62
     254
 66
     1
 10
0
 20
0
 30
0.0
 70
     1
 40
0
 41
0
  0
VERTEX
  8
0
 10
4.94
 20
6.07818
 30
0.0
 40
0
 41
0
  0
VERTEX
  8
0
 10
5.44
 20
5.82818
 30
0.0
 40
0
 41
0
  0
VERTEX
  8
0
 10
5.44194
 20
5.84722
 30
0.0
 40
0
 41
0
  0
VERTEX
  8
0
 10
4.94194
 20
6.09722
 30
0.0
 40
0
 41
0
  0
VERTEX
  8
0
 10
4.94
 20
6.07818
 30
0.0
 40
0
 41
0
  0
SEQEND
 8
0
  0
POLYLINE
  8
0
 62
     254
 66
     1
 10
0
 20
0
 30
0.0
 70
     1
 40
0
 41
0
  0
VERTEX
  8
0
 10
4.94194
 20
6.09722
 30
0.0
 40
0
 41
0
  0
VERTEX
  8
0
 10
5.44194
 20
5.84722
 30
0.0
 40
0
 41
0
  0
VERTEX
  8
0
 10
5.44456
 20
5.86578
 30
0.0
 40
0
 41
0
  0
VERTEX
  8
0
 10
4.94456
 20
6.11578
 30
0.0
 40
0
 41
0
  0
VERTEX
  8
0
 10
4.94194
 20
6.09722
 30
0.0
 40
0
 41
0
  0
SEQEND
 8
0
  0
POLYLINE
  8
0
 62
     254
 66
     1
 10
0
 20
0
 30
0.0
 70
     1
 40
0
 41
0
  0
VERTEX
  8
0
 10
4.94456
 20
6.11578
 30
0.0
 40
0
 41
0
  0
VERTEX
  8
0
 10
5.44456
 20
5.86578
 30
0.0
 40
0
 41
0
  0
VERTEX
  8
0
 10
5.44781
 20
5.88385
 30
0.0
 40
0
 41
0
  0
VERTEX
  8
0
 10
4.94781
 20
6.13385
 30
0.0
 40
0
 41
0
  0
VERTEX
  8
0
 10
4.94456
 20
6.11578
 30
0.0
 40
0
 41
0
  0
SEQEND
 8
0
  0
POLYLINE
  8
0
 62
     254
 66
     1
 10
0
 20
0
 30
0.0
 70
     1
 40
0
 41
0
  0
VERTEX
  8
0
 10
4.94781
 20
6.13385
 30
0.0
 40
0
 41
0
  0
VERTEX
  8
0
 10
5.44781
 20
5.88385
 30
0.0
 40
0
 41
0
  0
VERTEX
  8
0
 10
5.45176
 20
5.90142
 30
0.0
 40
0
 41
0
  0
VERTEX
  8
0
 10
4.95176
 20
6.15142
 30
0.0
 40
0
 41
0
  0
VERTEX
  8
0
 10
4.94781
 20
6.13385
 30
0.0
 40
0
 41
0
  0
SEQEND
 8
0
  0
POLYLINE
  8
0
 62
     254
 66
     1
 10
0
 20
0
 30
0.0
 70
     1
 40
0
 41
0
  0
VERTEX
  8
0
 10
4.95176
 20
6.15142
 30
0.0
 40
0
 41
0
  0
VERTEX
  8
0
 10
5.45176
 20
5.90142
 30
0.0
 40
0
 41
0
  0
VERTEX
  8
0
 10
5.45638
 20
5.91851
 30
0.0
 40
0
 41
0
  0
VERTEX
  8
0
 10
4.95638
 20
6.16851
 30
0.0
 40
0
 41
0
  0
VERTEX
  8
0
 10
4.95176
 20
6.15142
 30
0.0
 40
0
 41
0
  0
SEQEND
 8
0
  0
POLYLINE
  8
0
 62
     254
 66
     1
 10
0
 20
0
 30
0.0
 70
     1
 40
0
 41
0
  0
VERTEX
  8
0
 10
4.95638
 20
6.16851
 30
0.0
 40
0
 41
0
  0
VERTEX
  8
0
 10
5.45638
 20
5.91851
 30
0.0
 40
0
 41
0
  0
VERTEX
  8
0
 10
5.46164
 20
5.93511
 30
0.0
 40
0
 41
0
  0
VERTEX
  8
0
 10
4.96164
 20
6.18511
 30
0.0
 40
0
 41
0
  0
VERTEX
  8
0
 10
4.95638
 20
6.16851
 30
0.0
 40
0
 41
0
  0
SEQEND
 8
0
  0
POLYLINE
  8
0
 62
     254
 66
     1
 10
0
 20
0
 30
0.0
 70
     1
 40
0
 41
0
  0
VERTEX
  8
0
 10
4.96164
 20
6.18511
 30
0.0
 40
0
 41
0
  0
VERTEX
  8
0
 10
5.46164
 20
5.93511
 30
0.0
 40
0
 41
0
  0
VERTEX
  8
0
 10
5.46767
 20
5.95117
 30
0.0
 40
0
 41
0
  0
VERTEX
  8
0
 10
4.96767
 20
6.20117
 30
0.0
 40
0
 41
0
  0
VERTEX
  8
0
 10
4.96164
 20
6.18511
 30
0.0
 40
0
 41
0
  0
SEQEND
 8
0
  0
POLYLINE
  8
0
 62
     254
 66
     1
 10
0
 20
0
 30
0.0
 70
     1
 40
0
 41
0
  0
VERTEX
  8
0
 10
4.96767
 20
6.20117
 30
0.0
 40
0
 41
0
  0
VERTEX
  8
0
 10
5.46767
 20
5.95117
 30
0.0
 40
0
 41
0
  0
VERTEX
  8
0
 10
5.47433
 20
5.96674
 30
0.0
 40
0
 41
0
  0
VERTEX
  8
0
 10
4.97433
 20
6.21674
 30
0.0
 40
0
 41
0
  0
VERTEX
  8
0
 10
4.96767
 20
6.20117
 30
0.0
 40
0
 41
0
  0
SEQEND
 8
0
  0
POLYLINE
  8
0
 62
     254
 66
     1
 10
0
 20
0
 30
0.0
 70
     1
 40
0
 41
0
  0
VERTEX
  8
0
 10
4.97433
 20
6.21674
 30
0.0
 40
0
 41
0
  0
VERTEX
  8
0
 10
5.47433
 20
5.96674
 30
0.0
 40
0
 41
0
  0
VERTEX
  8
0
 10
5.48172
 20
5.98178
 30
0.0
 40
0
 41
0
  0
VERTEX
  8
0
 10
4.98172
 20
6.23178
 30
0.0
 40
0
 41
0
  0
VERTEX
  8
0
 10
4.97433
 20
6.21674
 30
0.0
 40
0
 41
0
  0
SEQEND
 8
0
  0
POLYLINE
  8
0
 62
     254
 66
     1
 10
0
 20
0
 30
0.0
 70
     1
 40
0
 41
0
  0
VERTEX
  8
0
 10
4.98172
 20
6.23178
 30
0.0
 40
0
 41
0
  0
VERTEX
  8
0
 10
5.48172
 20
5.98178
 30
0.0
 40
0
 41
0
  0
VERTEX
  8
0
 10
5.48986
 20
5.99631
 30
0.0
 40
0
 41
0
  0
VERTEX
  8
0
 10
4.98986
 20
6.24631
 30
0.0
 40
0
 41
0
  0
VERTEX
  8
0
 10
4.98172
 20
6.23178
 30
0.0
 40
0
 41
0
  0
SEQEND
 8
0
  0
POLYLINE
  8
0
 62
     254
 66
     1
 10
0
 20
0
 30
0.0
 70
     1
 40
0
 41
0
  0
VERTEX
  8
0
 10
4.98986
 20
6.24631
 30
0.0
 40
0
 41
0
  0
VERTEX
  8
0
 10
5.48986
 20
5.99631
 30
0.0
 40
0
 41
0
  0
VERTEX
  8
0
 10
5.49869
 20
6.01031
 30
0.0
 40
0
 41
0
  0
VERTEX
  8
0
 10
4.99869
 20
6.26031
 30
0.0
 40
0
 41
0
  0
VERTEX
  8
0
 10
4.98986
 20
6.24631
 30
0.0
 40
0
 41
0
  0
SEQEND
 8
0
  0
POLYLINE
  8
0
 62
     254
 66
     1
 10
0
 20
0
 30
0.0
 70
     1
 40
0
 41
0
  0
VERTEX
  8
0
 10
4.99869
 20
6.26031
 30
0.0
 40
0
 41
0
  0
VERTEX
  8
0
 10
5.49869
 20
6.01031
 30
0.0
 40
0
 41
0
  0
VERTEX
  8
0
 10
5.50825
 20
6.02376
 30
0.0
 40
0
 41
0
  0
VERTEX
  8
0
 10
5.00825
 20
6.27371
 30
0.0
 40
0
 41
0
  0
VERTEX
  8
0
 10
4.99869
 20
6.26031
 30
0.0
 40
0
 41
0
  0
SEQEND
 8
0
  0
POLYLINE
  8
0
 62
     254
 66
     1
 10
0
 20
0
 30
0.0
 70
     1
 40
0
 41
0
  0
VERTEX
  8
0
 10
5.00825
 20
6.27371
 30
0.0
 40
0
 41
0
  0
VERTEX
  8
0
 10
5.50825
 20
6.02376
 30
0.0
 40
0
 41
0
  0
VERTEX
  8
0
 10
5.51861
 20
6.03662
 30
0.0
 40
0
 41
0
  0
VERTEX
  8
0
 10
5.01861
 20
6.28662
 30
0.0
 40
0
 41
0
  0
VERTEX
  8
0
 10
5.00825
 20
6.27371
 30
0.0
 40
0
 41
0
  0
SEQEND
 8
0
  0
POLYLINE
  8
0
 62
     254
 66
     1
 10
0
 20
0
 30
0.0
 70
     1
 40
0
 41
0
  0
VERTEX
  8
0
 10
5.01861
 20
6.28662
 30
0.0
 40
0
 41
0
  0
VERTEX
  8
0
 10
5.51861
 20
6.03662
 30
0.0
 40
0
 41
0
  0
VERTEX
  8
0
 10
5.52968
 20
6.04899
 30
0.0
 40
0
 41
0
  0
VERTEX
  8
0
 10
5.02968
 20
6.29899
 30
0.0
 40
0
 41
0
  0
VERTEX
  8
0
 10
5.01861
 20
6.28662
 30
0.0
 40
0
 41
0
  0
SEQEND
 8
0
  0
POLYLINE
  8
0
 62
     254
 66
     1
 10
0
 20
0
 30
0.0
 70
     1
 40
0
 41
0
  0
VERTEX
  8
0
 10
5.02968
 20
6.29899
 30
0.0
 40
0
 41
0
  0
VERTEX
  8
0
 10
5.52968
 20
6.04899
 30
0.0
 40
0
 41
0
  0
VERTEX
  8
0
 10
5.5415
 20
6.06076
 30
0.0
 40
0
 41
0
  0
VERTEX
  8
0
 10
5.0415
 20
6.31076
 30
0.0
 40
0
 41
0
  0
VERTEX
  8
0
 10
5.02968
 20
6.29899
 30
0.0
 40
0
 41
0
  0
SEQEND
 8
0
  0
POLYLINE
  8
0
 62
     254
 66
     1
 10
0
 20
0
 30
0.0
 70
     1
 40
0
 41
0
  0
VERTEX
  8
0
 10
5.0415
 20
6.31076
 30
0.0
 40
0
 41
0
  0
VERTEX
  8
0
 10
5.5415
 20
6.06076
 30
0.0
 40
0
 41
0
  0
VERTEX
  8
0
 10
5.5541
 20
6.072
 30
0.0
 40
0
 41
0
  0
VERTEX
  8
0
 10
5.0541
 20
6.322
 30
0.0
 40
0
 41
0
  0
VERTEX
  8
0
 10
5.0415
 20
6.31076
 30
0.0
 40
0
 41
0
  0
SEQEND
 8
0
  0
POLYLINE
  8
0
 62
     254
 66
     1
 10
0
 20
0
 30
0.0
 70
     1
 40
0
 41
0
  0
VERTEX
  8
0
 10
5.0541
 20
6.322
 30
0.0
 40
0
 41
0
  0
VERTEX
  8
0
 10
5.5541
 20
6.072
 30
0.0
 40
0
 41
0
  0
VERTEX
  8
0
 10
5.56749
 20
6.08263
 30
0.0
 40
0
 41
0
  0
VERTEX
  8
0
 10
5.06749
 20
6.33263
 30
0.0
 40
0
 41
0
  0
VERTEX
  8
0
 10
5.0541
 20
6.322
 30
0.0
 40
0
 41
0
  0
SEQEND
 8
0
  0
POLYLINE
  8
0
 62
     33
 66
     1
 10
0
 20
0
 30
0.0
 70
     1
 40
0
 41
0
  0
VERTEX
  8
0
 10
5.06749
 20
6.33263
 30
0.0
 40
0
 41
0
  0
VERTEX
  8
0
 10
5.56749
 20
6.08263
 30
0.0
 40
0
 41
0
  0
VERTEX
  8
0
 10
5.58165
 20
6.09272
 30
0.0
 40
0
 41
0
  0
VERTEX
  8
0
 10
5.08165
 20
6.34272
 30
0.0
 40
0
 41
0
  0
VERTEX
  8
0
 10
5.06749
 20
6.33263
 30
0.0
 40
0
 41
0
  0
SEQEND
 8
0
  0
POLYLINE
  8
0
 62
     33
 66
     1
 10
0
 20
0
 30
0.0
 70
     1
 40
0
 41
0
  0
VERTEX
  8
0
 10
5.08165
 20
6.34272
 30
0.0
 40
0
 41
0
  0
VERTEX
  8
0
 10
5.58165
 20
6.09272
 30
0.0
 40
0
 41
0
  0
VERTEX
  8
0
 10
5.59663
 20
6.10221
 30
0.0
 40
0
 41
0
  0
VERTEX
  8
0
 10
5.09663
 20
6.35221
 30
0.0
 40
0
 41
0
  0
VERTEX
  8
0
 10
5.08165
 20
6.34272
 30
0.0
 40
0
 41
0
  0
SEQEND
 8
0
  0
POLYLINE
  8
0
 62
     253
 66
     1
 10
0
 20
0
 30
0.0
 70
     1
 40
0
 41
0
  0
VERTEX
  8
0
 10
5.09663
 20
6.35221
 30
0.0
 40
0
 41
0
  0
VERTEX
  8
0
 10
5.59663
 20
6.10221
 30
0.0
 40
0
 41
0
  0
VERTEX
  8
0
 10
5.61242
 20
6.11111
 30
0.0
 40
0
 41
0
  0
VERTEX
  8
0
 10
5.11242
 20
6.36111
 30
0.0
 40
0
 41
0
  0
VERTEX
  8
0
 10
5.09663
 20
6.35221
 30
0.0
 40
0
 41
0
  0
SEQEND
 8
0
  0
POLYLINE
  8
0
 62
     253
 66
     1
 10
0
 20
0
 30
0.0
 70
     1
 40
0
 41
0
  0
VERTEX
  8
0
 10
5.11242
 20
6.36111
 30
0.0
 40
0
 41
0
  0
VERTEX
  8
0
 10
5.61242
 20
6.11111
 30
0.0
 40
0
 41
0
  0
VERTEX
  8
0
 10
5.62901
 20
6.11942
 30
0.0
 40
0
 41
0
  0
VERTEX
  8
0
 10
5.12901
 20
6.36942
 30
0.0
 40
0
 41
0
  0
VERTEX
  8
0
 10
5.11242
 20
6.36111
 30
0.0
 40
0
 41
0
  0
SEQEND
 8
0
  0
POLYLINE
  8
0
 62
     253
 66
     1
 10
0
 20
0
 30
0.0
 70
     1
 40
0
 41
0
  0
VERTEX
  8
0
 10
5.12901
 20
6.36942
 30
0.0
 40
0
 41
0
  0
VERTEX
  8
0
 10
5.62901
 20
6.11942
 30
0.0
 40
0
 41
0
  0
VERTEX
  8
0
 10
5.64643
 20
6.12711
 30
0.0
 40
0
 41
0
  0
VERTEX
  8
0
 10
5.14643
 20
6.37711
 30
0.0
 40
0
 41
0
  0
VERTEX
  8
0
 10
5.12901
 20
6.36942
 30
0.0
 40
0
 41
0
  0
SEQEND
 8
0
  0
POLYLINE
  8
0
 62
     253
 66
     1
 10
0
 20
0
 30
0.0
 70
     1
 40
0
 41
0
  0
VERTEX
  8
0
 10
5.14643
 20
6.37711
 30
0.0
 40
0
 41
0
  0
VERTEX
  8
0
 10
5.64643
 20
6.12711
 30
0.0
 40
0
 41
0
  0
VERTEX
  8
0
 10
5.66465
 20
6.13422
 30
0.0
 40
0
 41
0
  0
VERTEX
  8
0
 10
5.16465
 20
6.38422
 30
0.0
 40
0
 41
0
  0
VERTEX
  8
0
 10
5.14643
 20
6.37711
 30
0.0
 40
0
 41
0
  0
SEQEND
 8
0
  0
POLYLINE
  8
0
 62
     9
 66
     1
 10
0
 20
0
 30
0.0
 70
     1
 40
0
 41
0
  0
VERTEX
  8
0
 10
5.16465
 20
6.38422
 30
0.0
 40
0
 41
0
  0
VERTEX
  8
0
 10
5.66465
 20
6.13422
 30
0.0
 40
0
 41
0
  0
VERTEX
  8
0
 10
5.68375
 20
6.14068
 30
0.0
 40
0
 41
0
  0
VERTEX
  8
0
 10
5.18375
 20
6.39068
 30
0.0
 40
0
 41
0
  0
VERTEX
  8
0
 10
5.16465
 20
6.38422
 30
0.0
 40
0
 41
0
  0
SEQEND
 8
0
  0
POLYLINE
  8
0
 62
     9
 66
     1
 10
0
 20
0
 30
0.0
 70
     1
 40
0
 41
0
  0
VERTEX
  8
0
 10
5.18375
 20
6.39068
 30
0.0
 40
0
 41
0
  0
VERTEX
  8
0
 10
5.68375
 20
6.14068
 30
0.0
 40
0
 41
0
  0
VERTEX
  8
0
 10
5.70367
 20
6.14654
 30
0.0
 40
0
 41
0
  0
VERTEX
  8
0
 10
5.20367
 20
6.39654
 30
0.0
 40
0
 41
0
  0
VERTEX
  8
0
 10
5.18375
 20
6.39068
 30
0.0
 40
0
 41
0
  0
SEQEND
 8
0
  0
POLYLINE
  8
0
 62
     252
 66
     1
 10
0
 20
0
 30
0.0
 70
     1
 40
0
 41
0
  0
VERTEX
  8
0
 10
5.20367
 20
6.39654
 30
0.0
 40
0
 41
0
  0
VERTEX
  8
0
 10
5.70367
 20
6.14654
 30
0.0
 40
0
 41
0
  0
VERTEX
  8
0
 10
5.72444
 20
6.15175
 30
0.0
 40
0
 41
0
  0
VERTEX
  8
0
 10
5.22444
 20
6.40175
 30
0.0
 40
0
 41
0
  0
VERTEX
  8
0
 10
5.20367
 20
6.39654
 30
0.0
 40
0
 41
0
  0
SEQEND
 8
0
  0
POLYLINE
  8
0
 62
     252
 66
     1
 10
0
 20
0
 30
0.0
 70
     1
 40
0
 41
0
  0
VERTEX
  8
0
 10
5.22444
 20
6.40175
 30
0.0
 40
0
 41
0
  0
VERTEX
  8
0
 10
5.72444
 20
6.15175
 30
0.0
 40
0
 41
0
  0
VERTEX
  8
0
 10
5.7461
 20
6.15636
 30
0.0
 40
0
 41
0
  0
VERTEX
  8
0
 10
5.2461
 20
6.40636
 30
0.0
 40
0
 41
0
  0
VERTEX
  8
0
 10
5.22444
 20
6.40175
 30
0.0
 40
0
 41
0
  0
SEQEND
 8
0
  0
POLYLINE
  8
0
 62
     252
 66
     1
 10
0
 20
0
 30
0.0
 70
     1
 40
0
 41
0
  0
VERTEX
  8
0
 10
5.2461
 20
6.40636
 30
0.0
 40
0
 41
0
  0
VERTEX
  8
0
 10
5.7461
 20
6.15636
 30
0.0
 40
0
 41
0
  0
VERTEX
  8
0
 10
5.76861
 20
6.16026
 30
0.0
 40
0
 41
0
  0
VERTEX
  8
0
 10
5.26861
 20
6.41026
 30
0.0
 40
0
 41
0
  0
VERTEX
  8
0
 10
5.2461
 20
6.40636
 30
0.0
 40
0
 41
0
  0
SEQEND
 8
0
  0
POLYLINE
  8
0
 62
     0
 66
     1
 10
0
 20
0
 30
0.0
 70
     1
 40
1.00006
 41
1.00006
  0
VERTEX
  8
0
 10
4.93842
 20
5.99744
 30
0.0
 40
0.0138897
 41
0.0138897
  0
VERTEX
  8
0
 10
5.43842
 20
5.74744
 30
0.0
 40
0.0138897
 41
0.0138897
  0
VERTEX
  8
0
 10
5.43788
 20
5.76833
 30
0.0
 40
0.0138897
 41
0.0138897
  0
VERTEX
  8
0
 10
5.43793
 20
5.78874
 30
0.0
 40
0.0138897
 41
0.0138897
  0
VERTEX
  8
0
 10
5.43864
 20
5.80871
 30
0.0
 40
0.0138897
 41
0.0138897
  0
VERTEX
  8
0
 10
5.44
 20
5.82818
 30
0.0
 40
0.0138897
 41
0.0138897
  0
VERTEX
  8
0
 10
5.44194
 20
5.84722
 30
0.0
 40
0.0138897
 41
0.0138897
  0
VERTEX
  8
0
 10
5.44456
 20
5.86578
 30
0.0
 40
0.0138897
 41
0.0138897
  0
VERTEX
  8
0
 10
5.44781
 20
5.88385
 30
0.0
 40
0.0138897
 41
0.0138897
  0
VERTEX
  8
0
 10
5.45176
 20
5.90142
 30
0.0
 40
0.0138897
 41
0.0138897
  0
VERTEX
  8
0
 10
5.45638
 20
5.91851
 30
0.0
 40
0.0138897
 41
0.0138897
  0
VERTEX
  8
0
 10
5.46164
 20
5.93511
 30
0.0
 40
0.0138897
 41
0.0138897
  0
VERTEX
  8
0
 10
5.46767
 20
5.95117
 30
0.0
 40
0.0138897
 41
0.0138897
  0
VERTEX
  8
0
 10
5.47433
 20
5.96674
 30
0.0
 40
0.0138897
 41
0.0138897
  0
VERTEX
  8
0
 10
5.48172
 20
5.98178
 30
0.0
 40
0.0138897
 41
0.0138897
  0
VERTEX
  8
0
 10
5.48986
 20
5.99631
 30
0.0
 40
0.0138897
 41
0.0138897
  0
VERTEX
  8
0
 10
5.49869
 20
6.01031
 30
0.0
 40
0.0138897
 41
0.0138897
  0
VERTEX
  8
0
 10
5.50825
 20
6.02376
 30
0.0
 40
0.0138897
 41
0.0138897
  0
VERTEX
  8
0
 10
5.51861
 20
6.03662
 30
0.0
 40
0.0138897
 41
0.0138897
  0
VERTEX
  8
0
 10
5.52968
 20
6.04899
 30
0.0
 40
0.0138897
 41
0.0138897
  0
VERTEX
  8
0
 10
5.5415
 20
6.06076
 30
0.0
 40
0.0138897
 41
0.0138897
  0
VERTEX
  8
0
 10
5.5541
 20
6.072
 30
0.0
 40
0.0138897
 41
0.0138897
  0
VERTEX
  8
0
 10
5.56749
 20
6.08263
 30
0.0
 40
0.0138897
 41
0.0138897
  0
VERTEX
  8
0
 10
5.58165
 20
6.09272
 30
0.0
 40
0.0138897
 41
0.0138897
  0
VERTEX
  8
0
 10
5.59663
 20
6.10221
 30
0.0
 40
0.0138897
 41
0.0138897
  0
VERTEX
  8
0
 10
5.61242
 20
6.11111
 30
0.0
 40
0.0138897
 41
0.0138897
  0
VERTEX
  8
0
 10
5.62901
 20
6.11942
 30
0.0
 40
0.0138897
 41
0.0138897
  0
VERTEX
  8
0
 10
5.64643
 20
6.12711
 30
0.0
 40
0.0138897
 41
0.0138897
  0
VERTEX
  8
0
 10
5.66465
 20
6.13422
 30
0.0
 40
0.0138897
 41
0.0138897
  0
VERTEX
  8
0
 10
5.68375
 20
6.14068
 30
0.0
 40
0.0138897
 41
0.0138897
  0
VERTEX
  8
0
 10
5.70367
 20
6.14654
 30
0.0
 40
0.0138897
 41
0.0138897
  0
VERTEX
  8
0
 10
5.72444
 20
6.15175
 30
0.0
 40
0.0138897
 41
0.0138897
  0
VERTEX
  8
0
 10
5.7461
 20
6.15636
 30
0.0
 40
0.0138897
 41
0.0138897
  0
VERTEX
  8
0
 10
5.76861
 20
6.16026
 30
0.0
 40
0.0138897
 41
0.0138897
  0
VERTEX
  8
0
 10
5.26861
 20
6.41026
 30
0.0
 40
0.0138897
 41
0.0138897
  0
VERTEX
  8
0
 10
5.2461
 20
6.40636
 30
0.0
 40
0.0138897
 41
0.0138897
  0
VERTEX
  8
0
 10
5.22444
 20
6.40175
 30
0.0
 40
0.0138897
 41
0.0138897
  0
VERTEX
  8
0
 10
5.20367
 20
6.39654
 30
0.0
 40
0.0138897
 41
0.0138897
  0
VERTEX
  8
0
 10
5.18375
 20
6.39068
 30
0.0
 40
0.0138897
 41
0.0138897
  0
VERTEX
  8
0
 10
5.16465
 20
6.38422
 30
0.0
 40
0.0138897
 41
0.0138897
  0
VERTEX
  8
0
 10
5.14643
 20
6.37711
 30
0.0
 40
0.0138897
 41
0.0138897
  0
VERTEX
  8
0
 10
5.12901
 20
6.36942
 30
0.0
 40
0.0138897
 41
0.0138897
  0
VERTEX
  8
0
 10
5.11242
 20
6.36111
 30
0.0
 40
0.0138897
 41
0.0138897
  0
VERTEX
  8
0
 10
5.09663
 20
6.35221
 30
0.0
 40
0.0138897
 41
0.0138897
  0
VERTEX
  8
0
 10
5.08165
 20
6.34272
 30
0.0
 40
0.0138897
 41
0.0138897
  0
VERTEX
  8
0
 10
5.06749
 20
6.33263
 30
0.0
 40
0.0138897
 41
0.0138897
  0
VERTEX
  8
0
 10
5.0541
 20
6.322
 30
0.0
 40
0.0138897
 41
0.0138897
  0
VERTEX
  8
0
 10
5.0415
 20
6.31076
 30
0.0
 40
0.0138897
 41
0.0138897
  0
VERTEX
  8
0
 10
5.02968
 20
6.29899
 30
0.0
 40
0.0138897
 41
0.0138897
  0
VERTEX
  8
0
 10
5.01861
 20
6.28662
 30
0.0
 40
0.0138897
 41
0.0138897
  0
VERTEX
  8
0
 10
5.00825
 20
6.27371
 30
0.0
 40
0.0138897
 41
0.0138897
  0
VERTEX
  8
0
 10
4.99869
 20
6.26031
 30
0.0
 40
0.0138897
 41
0.0138897
  0
VERTEX
  8
0
 10
4.98986
 20
6.24631
 30
0.0
 40
0.0138897
 41
0.0138897
  0
VERTEX
  8
0
 10
4.98172
 20
6.23178
 30
0.0
 40
0.0138897
 41
0.0138897
  0
VERTEX
  8
0
 10
4.97433
 20
6.21674
 30
0.0
 40
0.0138897
 41
0.0138897
  0
VERTEX
  8
0
 10
4.96767
 20
6.20117
 30
0.0
 40
0.0138897
 41
0.0138897
  0
VERTEX
  8
0
 10
4.96164
 20
6.18511
 30
0.0
 40
0.0138897
 41
0.0138897
  0
VERTEX
  8
0
 10
4.95638
 20
6.16851
 30
0.0
 40
0.0138897
 41
0.0138897
  0
VERTEX
  8
0
 10
4.95176
 20
6.15142
 30
0.0
 40
0.0138897
 41
0.0138897
  0
VERTEX
  8
0
 10
4.94781
 20
6.13385
 30
0.0
 40
0.0138897
 41
0.0138897
  0
VERTEX
  8
0
 10
4.94456
 20
6.11578
 30
0.0
 40
0.0138897
 41
0.0138897
  0
VERTEX
  8
0
 10
4.94194
 20
6.09722
 30
0.0
 40
0.0138897
 41
0.0138897
  0
VERTEX
  8
0
 10
4.94
 20
6.07818
 30
0.0
 40
0.0138897
 41
0.0138897
  0
VERTEX
  8
0
 10
4.93864
 20
6.05871
 30
0.0
 40
0.0138897
 41
0.0138897
  0
VERTEX
  8
0
 10
4.93793
 20
6.03874
 30
0.0
 40
0.0138897
 41
0.0138897
  0
VERTEX
  8
0
 10
4.93788
 20
6.01833
 30
0.0
 40
0.0138897
 41
0.0138897
  0
VERTEX
  8
0
 10
4.93842
 20
5.99744
 30
0.0
 40
0.0138897
 41
0.0138897
  0
SEQEND
 8
0
  0
POLYLINE
  8
0
 62
     254
 66
     1
 10
0
 20
0
 30
0.0
 70
     1
 40
0
 41
0
  0
VERTEX
  8
0
 10
5.26861
 20
6.41026
 30
0.0
 40
0
 41
0
  0
VERTEX
  8
0
 10
5.76861
 20
6.16026
 30
0.0
 40
0
 41
0
  0
VERTEX
  8
0
 10
5.76861
 20
6.36361
 30
0.0
 40
0
 41
0
  0
VERTEX
  8
0
 10
5.26861
 20
6.61361
 30
0.0
 40
0
 41
0
  0
VERTEX
  8
0
 10
5.26861
 20
6.41026
 30
0.0
 40
0
 41
0
  0
SEQEND
 8
0
  0
POLYLINE
  8
0
 62
     0
 66
     1
 10
0
 20
0
 30
0.0
 70
     1
 40
1.00006
 41
1.00006
  0
VERTEX
  8
0
 10
5.26861
 20
6.41026
 30
0.0
 40
0.0138897
 41
0.0138897
  0
VERTEX
  8
0
 10
5.76861
 20
6.16026
 30
0.0
 40
0.0138897
 41
0.0138897
  0
VERTEX
  8
0
 10
5.76861
 20
6.36361
 30
0.0
 40
0.0138897
 41
0.0138897
  0
VERTEX
  8
0
 10
5.26861
 20
6.61361
 30
0.0
 40
0.0138897
 41
0.0138897
  0
VERTEX
  8
0
 10
5.26861
 20
6.41026
 30
0.0
 40
0.0138897
 41
0.0138897
  0
SEQEND
 8
0
  0
POLYLINE
  8
0
 62
     253
 66
     1
 10
0
 20
0
 30
0.0
 70
     1
 40
0
 41
0
  0
VERTEX
  8
0
 10
5.26861
 20
6.61361
 30
0.0
 40
0
 41
0
  0
VERTEX
  8
0
 10
5.76861
 20
6.36361
 30
0.0
 40
0
 41
0
  0
VERTEX
  8
0
 10
5.80479
 20
6.38292
 30
0.0
 40
0
 41
0
  0
VERTEX
  8
0
 10
5.30479
 20
6.63292
 30
0.0
 40
0
 41
0
  0
VERTEX
  8
0
 10
5.26861
 20
6.61361
 30
0.0
 40
0
 41
0
  0
SEQEND
 8
0
  0
POLYLINE
  8
0
 62
     253
 66
     1
 10
0
 20
0
 30
0.0
 70
     1
 40
0
 41
0
  0
VERTEX
  8
0
 10
5.30479
 20
6.63292
 30
0.0
 40
0
 41
0
  0
VERTEX
  8
0
 10
5.80479
 20
6.38292
 30
0.0
 40
0
 41
0
  0
VERTEX
  8
0
 10
5.83908
 20
6.40315
 30
0.0
 40
0
 41
0
  0
VERTEX
  8
0
 10
5.33908
 20
6.65315
 30
0.0
 40
0
 41
0
  0
VERTEX
  8
0
 10
5.30479
 20
6.63292
 30
0.0
 40
0
 41
0
  0
SEQEND
 8
0
  0
POLYLINE
  8
0
 62
     33
 66
     1
 10
0
 20
0
 30
0.0
 70
     1
 40
0
 41
0
  0
VERTEX
  8
0
 10
5.33908
 20
6.65315
 30
0.0
 40
0
 41
0
  0
VERTEX
  8
0
 10
5.83908
 20
6.40315
 30
0.0
 40
0
 41
0
  0
VERTEX
  8
0
 10
5.87158
 20
6.42437
 30
0.0
 40
0
 41
0
  0
VERTEX
  8
0
 10
5.37158
 20
6.67437
 30
0.0
 40
0
 41
0
  0
VERTEX
  8
0
 10
5.33908
 20
6.65315
 30
0.0
 40
0
 41
0
  0
SEQEND
 8
0
  0
POLYLINE
  8
0
 62
     33
 66
     1
 10
0
 20
0
 30
0.0
 70
     1
 40
0
 41
0
  0
VERTEX
  8
0
 10
5.37158
 20
6.67437
 30
0.0
 40
0
 41
0
  0
VERTEX
  8
0
 10
5.87158
 20
6.42437
 30
0.0
 40
0
 41
0
  0
VERTEX
  8
0
 10
5.90218
 20
6.44646
 30
0.0
 40
0
 41
0
  0
VERTEX
  8
0
 10
5.40218
 20
6.69646
 30
0.0
 40
0
 41
0
  0
VERTEX
  8
0
 10
5.37158
 20
6.67437
 30
0.0
 40
0
 41
0
  0
SEQEND
 8
0
  0
POLYLINE
  8
0
 62
     254
 66
     1
 10
0
 20
0
 30
0.0
 70
     1
 40
0
 41
0
  0
VERTEX
  8
0
 10
5.40218
 20
6.69646
 30
0.0
 40
0
 41
0
  0
VERTEX
  8
0
 10
5.90218
 20
6.44646
 30
0.0
 40
0
 41
0
  0
VERTEX
  8
0
 10
5.93099
 20
6.46946
 30
0.0
 40
0
 41
0
  0
VERTEX
  8
0
 10
5.43099
 20
6.71946
 30
0.0
 40
0
 41
0
  0
VERTEX
  8
0
 10
5.40218
 20
6.69646
 30
0.0
 40
0
 41
0
  0
SEQEND
 8
0
  0
POLYLINE
  8
0
 62
     254
 66
     1
 10
0
 20
0
 30
0.0
 70
     1
 40
0
 41
0
  0
VERTEX
  8
0
 10
5.43099
 20
6.71946
 30
0.0
 40
0
 41
0
  0
VERTEX
  8
0
 10
5.93099
 20
6.46946
 30
0.0
 40
0
 41
0
  0
VERTEX
  8
0
 10
5.95801
 20
6.49333
 30
0.0
 40
0
 41
0
  0
VERTEX
  8
0
 10
5.45801
 20
6.74333
 30
0.0
 40
0
 41
0
  0
VERTEX
  8
0
 10
5.43099
 20
6.71946
 30
0.0
 40
0
 41
0
  0
SEQEND
 8
0
  0
POLYLINE
  8
0
 62
     254
 66
     1
 10
0
 20
0
 30
0.0
 70
     1
 40
0
 41
0
  0
VERTEX
  8
0
 10
5.45801
 20
6.74333
 30
0.0
 40
0
 41
0
  0
VERTEX
  8
0
 10
5.95801
 20
6.49333
 30
0.0
 40
0
 41
0
  0
VERTEX
  8
0
 10
5.98329
 20
6.51812
 30
0.0
 40
0
 41
0
  0
VERTEX
  8
0
 10
5.48329
 20
6.76812
 30
0.0
 40
0
 41
0
  0
VERTEX
  8
0
 10
5.45801
 20
6.74333
 30
0.0
 40
0
 41
0
  0
SEQEND
 8
0
  0
POLYLINE
  8
0
 62
     254
 66
     1
 10
0
 20
0
 30
0.0
 70
     1
 40
0
 41
0
  0
VERTEX
  8
0
 10
5.48329
 20
6.76812
 30
0.0
 40
0
 41
0
  0
VERTEX
  8
0
 10
5.98329
 20
6.51812
 30
0.0
 40
0
 41
0
  0
VERTEX
  8
0
 10
6.00678
 20
6.54378
 30
0.0
 40
0
 41
0
  0
VERTEX
  8
0
 10
5.50678
 20
6.79378
 30
0.0
 40
0
 41
0
  0
VERTEX
  8
0
 10
5.48329
 20
6.76812
 30
0.0
 40
0
 41
0
  0
SEQEND
 8
0
  0
POLYLINE
  8
0
 62
     254
 66
     1
 10
0
 20
0
 30
0.0
 70
     1
 40
0
 41
0
  0
VERTEX
  8
0
 10
5.50678
 20
6.79378
 30
0.0
 40
0
 41
0
  0
VERTEX
  8
0
 10
6.00678
 20
6.54378
 30
0.0
 40
0
 41
0
  0
VERTEX
  8
0
 10
6.02854
 20
6.57032
 30
0.0
 40
0
 41
0
  0
VERTEX
  8
0
 10
5.52854
 20
6.82032
 30
0.0
 40
0
 41
0
  0
VERTEX
  8
0
 10
5.50678
 20
6.79378
 30
0.0
 40
0
 41
0
  0
SEQEND
 8
0
  0
POLYLINE
  8
0
 62
     254
 66
     1
 10
0
 20
0
 30
0.0
 70
     1
 40
0
 41
0
  0
VERTEX
  8
0
 10
5.52854
 20
6.82032
 30
0.0
 40
0
 41
0
  0
VERTEX
  8
0
 10
6.02854
 20
6.57032
 30
0.0
 40
0
 41
0
  0
VERTEX
  8
0
 10
6.04856
 20
6.59765
 30
0.0
 40
0
 41
0
  0
VERTEX
  8
0
 10
5.54856
 20
6.84765
 30
0.0
 40
0
 41
0
  0
VERTEX
  8
0
 10
5.52854
 20
6.82032
 30
0.0
 40
0
 41
0
  0
SEQEND
 8
0
  0
POLYLINE
  8
0
 62
     254
 66
     1
 10
0
 20
0
 30
0.0
 70
     1
 40
0
 41
0
  0
VERTEX
  8
0
 10
5.54856
 20
6.84765
 30
0.0
 40
0
 41
0
  0
VERTEX
  8
0
 10
6.04856
 20
6.59765
 30
0.0
 40
0
 41
0
  0
VERTEX
  8
0
 10
6.06689
 20
6.62592
 30
0.0
 40
0
 41
0
  0
VERTEX
  8
0
 10
5.56689
 20
6.87592
 30
0.0
 40
0
 41
0
  0
VERTEX
  8
0
 10
5.54856
 20
6.84765
 30
0.0
 40
0
 41
0
  0
SEQEND
 8
0
  0
POLYLINE
  8
0
 62
     254
 66
     1
 10
0
 20
0
 30
0.0
 70
     1
 40
0
 41
0
  0
VERTEX
  8
0
 10
5.56689
 20
6.87592
 30
0.0
 40
0
 41
0
  0
VERTEX
  8
0
 10
6.06689
 20
6.62592
 30
0.0
 40
0
 41
0
  0
VERTEX
  8
0
 10
6.08356
 20
6.655
 30
0.0
 40
0
 41
0
  0
VERTEX
  8
0
 10
5.58356
 20
6.905
 30
0.0
 40
0
 41
0
  0
VERTEX
  8
0
 10
5.56689
 20
6.87592
 30
0.0
 40
0
 41
0
  0
SEQEND
 8
0
  0
POLYLINE
  8
0
 62
     254
 66
     1
 10
0
 20
0
 30
0.0
 70
     1
 40
0
 41
0
  0
VERTEX
  8
0
 10
5.58356
 20
6.905
 30
0.0
 40
0
 41
0
  0
VERTEX
  8
0
 10
6.08356
 20
6.655
 30
0.0
 40
0
 41
0
  0
VERTEX
  8
0
 10
6.09858
 20
6.6849
 30
0.0
 40
0
 41
0
  0
VERTEX
  8
0
 10
5.59858
 20
6.9349
 30
0.0
 40
0
 41
0
  0
VERTEX
  8
0
 10
5.58356
 20
6.905
 30
0.0
 40
0
 41
0
  0
SEQEND
 8
0
  0
POLYLINE
  8
0
 62
     254
 66
     1
 10
0
 20
0
 30
0.0
 70
     1
 40
0
 41
0
  0
VERTEX
  8
0
 10
5.59858
 20
6.9349
 30
0.0
 40
0
 41
0
  0
VERTEX
  8
0
 10
6.09858
 20
6.6849
 30
0.0
 40
0
 41
0
  0
VERTEX
  8
0
 10
6.11193
 20
6.7156
 30
0.0
 40
0
 41
0
  0
VERTEX
  8
0
 10
5.61193
 20
6.9656
 30
0.0
 40
0
 41
0
  0
VERTEX
  8
0
 10
5.59858
 20
6.9349
 30
0.0
 40
0
 41
0
  0
SEQEND
 8
0
  0
POLYLINE
  8
0
 62
     254
 66
     1
 10
0
 20
0
 30
0.0
 70
     1
 40
0
 41
0
  0
VERTEX
  8
0
 10
5.61193
 20
6.9656
 30
0.0
 40
0
 41
0
  0
VERTEX
  8
0
 10
6.11193
 20
6.7156
 30
0.0
 40
0
 41
0
  0
VERTEX
  8
0
 10
6.12364
 20
6.74718
 30
0.0
 40
0
 41
0
  0
VERTEX
  8
0
 10
5.62364
 20
6.99718
 30
0.0
 40
0
 41
0
  0
VERTEX
  8
0
 10
5.61193
 20
6.9656
 30
0.0
 40
0
 41
0
  0
SEQEND
 8
0
  0
POLYLINE
  8
0
 62
     254
 66
     1
 10
0
 20
0
 30
0.0
 70
     1
 40
0
 41
0
  0
VERTEX
  8
0
 10
5.62364
 20
6.99718
 30
0.0
 40
0
 41
0
  0
VERTEX
  8
0
 10
6.12364
 20
6.74718
 30
0.0
 40
0
 41
0
  0
VERTEX
  8
0
 10
6.13379
 20
6.77951
 30
0.0
 40
0
 41
0
  0
VERTEX
  8
0
 10
5.63379
 20
7.02951
 30
0.0
 40
0
 41
0
  0
VERTEX
  8
0
 10
5.62364
 20
6.99718
 30
0.0
 40
0
 41
0
  0
SEQEND
 8
0
  0
POLYLINE
  8
0
 62
     254
 66
     1
 10
0
 20
0
 30
0.0
 70
     1
 40
0
 41
0
  0
VERTEX
  8
0
 10
5.63379
 20
7.02951
 30
0.0
 40
0
 41
0
  0
VERTEX
  8
0
 10
6.13379
 20
6.77951
 30
0.0
 40
0
 41
0
  0
VERTEX
  8
0
 10
6.14231
 20
6.81267
 30
0.0
 40
0
 41
0
  0
VERTEX
  8
0
 10
5.64231
 20
7.06261
 30
0.0
 40
0
 41
0
  0
VERTEX
  8
0
 10
5.63379
 20
7.02951
 30
0.0
 40
0
 41
0
  0
SEQEND
 8
0
  0
POLYLINE
  8
0
 62
     254
 66
     1
 10
0
 20
0
 30
0.0
 70
     1
 40
0
 41
0
  0
VERTEX
  8
0
 10
5.64231
 20
7.06261
 30
0.0
 40
0
 41
0
  0
VERTEX
  8
0
 10
6.14231
 20
6.81267
 30
0.0
 40
0
 41
0
  0
VERTEX
  8
0
 10
6.14925
 20
6.84657
 30
0.0
 40
0
 41
0
  0
VERTEX
  8
0
 10
5.64925
 20
7.09657
 30
0.0
 40
0
 41
0
  0
VERTEX
  8
0
 10
5.64231
 20
7.06261
 30
0.0
 40
0
 41
0
  0
SEQEND
 8
0
  0
POLYLINE
  8
0
 62
     254
 66
     1
 10
0
 20
0
 30
0.0
 70
     1
 40
0
 41
0
  0
VERTEX
  8
0
 10
5.64925
 20
7.09657
 30
0.0
 40
0
 41
0
  0
VERTEX
  8
0
 10
6.14925
 20
6.84657
 30
0.0
 40
0
 41
0
  0
VERTEX
  8
0
 10
6.15468
 20
6.88124
 30
0.0
 40
0
 41
0
  0
VERTEX
  8
0
 10
5.65468
 20
7.13124
 30
0.0
 40
0
 41
0
  0
VERTEX
  8
0
 10
5.64925
 20
7.09657
 30
0.0
 40
0
 41
0
  0
SEQEND
 8
0
  0
POLYLINE
  8
0
 62
     254
 66
     1
 10
0
 20
0
 30
0.0
 70
     1
 40
0
 41
0
  0
VERTEX
  8
0
 10
5.65468
 20
7.13124
 30
0.0
 40
0
 41
0
  0
VERTEX
  8
0
 10
6.15468
 20
6.88124
 30
0.0
 40
0
 41
0
  0
VERTEX
  8
0
 10
6.15858
 20
6.91672
 30
0.0
 40
0
 41
0
  0
VERTEX
  8
0
 10
5.65858
 20
7.16672
 30
0.0
 40
0
 41
0
  0
VERTEX
  8
0
 10
5.65468
 20
7.13124
 30
0.0
 40
0
 41
0
  0
SEQEND
 8
0
  0
POLYLINE
  8
0
 62
     254
 66
     1
 10
0
 20
0
 30
0.0
 70
     1
 40
0
 41
0
  0
VERTEX
  8
0
 10
5.65858
 20
7.16672
 30
0.0
 40
0
 41
0
  0
VERTEX
  8
0
 10
6.15858
 20
6.91672
 30
0.0
 40
0
 41
0
  0
VERTEX
  8
0
 10
6.16097
 20
6.95296
 30
0.0
 40
0
 41
0
  0
VERTEX
  8
0
 10
5.66097
 20
7.2029
 30
0.0
 40
0
 41
0
  0
VERTEX
  8
0
 10
5.65858
 20
7.16672
 30
0.0
 40
0
 41
0
  0
SEQEND
 8
0
  0
POLYLINE
  8
0
 62
     254
 66
     1
 10
0
 20
0
 30
0.0
 70
     1
 40
0
 41
0
  0
VERTEX
  8
0
 10
5.66097
 20
7.2029
 30
0.0
 40
0
 41
0
  0
VERTEX
  8
0
 10
6.16097
 20
6.95296
 30
0.0
 40
0
 41
0
  0
VERTEX
  8
0
 10
6.16183
 20
6.9899
 30
0.0
 40
0
 41
0
  0
VERTEX
  8
0
 10
5.66183
 20
7.2399
 30
0.0
 40
0
 41
0
  0
VERTEX
  8
0
 10
5.66097
 20
7.2029
 30
0.0
 40
0
 41
0
  0
SEQEND
 8
0
  0
POLYLINE
  8
0
 62
     254
 66
     1
 10
0
 20
0
 30
0.0
 70
     1
 40
0
 41
0
  0
VERTEX
  8
0
 10
5.66183
 20
7.2399
 30
0.0
 40
0
 41
0
  0
VERTEX
  8
0
 10
6.16183
 20
6.9899
 30
0.0
 40
0
 41
0
  0
VERTEX
  8
0
 10
6.16124
 20
7.02761
 30
0.0
 40
0
 41
0
  0
VERTEX
  8
0
 10
5.66124
 20
7.27761
 30
0.0
 40
0
 41
0
  0
VERTEX
  8
0
 10
5.66183
 20
7.2399
 30
0.0
 40
0
 41
0
  0
SEQEND
 8
0
  0
POLYLINE
  8
0
 62
     254
 66
     1
 10
0
 20
0
 30
0.0
 70
     1
 40
0
 41
0
  0
VERTEX
  8
0
 10
5.66124
 20
7.27761
 30
0.0
 40
0
 41
0
  0
VERTEX
  8
0
 10
6.16124
 20
7.02761
 30
0.0
 40
0
 41
0
  0
VERTEX
  8
0
 10
6.15918
 20
7.06603
 30
0.0
 40
0
 41
0
  0
VERTEX
  8
0
 10
5.65918
 20
7.31603
 30
0.0
 40
0
 41
0
  0
VERTEX
  8
0
 10
5.66124
 20
7.27761
 30
0.0
 40
0
 41
0
  0
SEQEND
 8
0
  0
POLYLINE
  8
0
 62
     254
 66
     1
 10
0
 20
0
 30
0.0
 70
     1
 40
0
 41
0
  0
VERTEX
  8
0
 10
5.65918
 20
7.31603
 30
0.0
 40
0
 41
0
  0
VERTEX
  8
0
 10
6.15918
 20
7.06603
 30
0.0
 40
0
 41
0
  0
VERTEX
  8
0
 10
6.15565
 20
7.10519
 30
0.0
 40
0
 41
0
  0
VERTEX
  8
0
 10
5.65565
 20
7.35519
 30
0.0
 40
0
 41
0
  0
VERTEX
  8
0
 10
5.65918
 20
7.31603
 30
0.0
 40
0
 41
0
  0
SEQEND
 8
0
  0
POLYLINE
  8
0
 62
     254
 66
     1
 10
0
 20
0
 30
0.0
 70
     1
 40
0
 41
0
  0
VERTEX
  8
0
 10
5.65565
 20
7.35519
 30
0.0
 40
0
 41
0
  0
VERTEX
  8
0
 10
6.15565
 20
7.10519
 30
0.0
 40
0
 41
0
  0
VERTEX
  8
0
 10
6.15076
 20
7.14507
 30
0.0
 40
0
 41
0
  0
VERTEX
  8
0
 10
5.65076
 20
7.39507
 30
0.0
 40
0
 41
0
  0
VERTEX
  8
0
 10
5.65565
 20
7.35519
 30
0.0
 40
0
 41
0
  0
SEQEND
 8
0
  0
POLYLINE
  8
0
 62
     254
 66
     1
 10
0
 20
0
 30
0.0
 70
     1
 40
0
 41
0
  0
VERTEX
  8
0
 10
5.65076
 20
7.39507
 30
0.0
 40
0
 41
0
  0
VERTEX
  8
0
 10
6.15076
 20
7.14507
 30
0.0
 40
0
 41
0
  0
VERTEX
  8
0
 10
6.14442
 20
7.1856
 30
0.0
 40
0
 41
0
  0
VERTEX
  8
0
 10
5.64442
 20
7.4356
 30
0.0
 40
0
 41
0
  0
VERTEX
  8
0
 10
5.65076
 20
7.39507
 30
0.0
 40
0
 41
0
  0
SEQEND
 8
0
  0
POLYLINE
  8
0
 62
     254
 66
     1
 10
0
 20
0
 30
0.0
 70
     1
 40
0
 41
0
  0
VERTEX
  8
0
 10
5.64442
 20
7.4356
 30
0.0
 40
0
 41
0
  0
VERTEX
  8
0
 10
6.14442
 20
7.1856
 30
0.0
 40
0
 41
0
  0
VERTEX
  8
0
 10
6.13678
 20
7.22689
 30
0.0
 40
0
 41
0
  0
VERTEX
  8
0
 10
5.63678
 20
7.47689
 30
0.0
 40
0
 41
0
  0
VERTEX
  8
0
 10
5.64442
 20
7.4356
 30
0.0
 40
0
 41
0
  0
SEQEND
 8
0
  0
POLYLINE
  8
0
 62
     254
 66
     1
 10
0
 20
0
 30
0.0
 70
     1
 40
0
 41
0
  0
VERTEX
  8
0
 10
5.63678
 20
7.47689
 30
0.0
 40
0
 41
0
  0
VERTEX
  8
0
 10
6.13678
 20
7.22689
 30
0.0
 40
0
 41
0
  0
VERTEX
  8
0
 10
6.12765
 20
7.26882
 30
0.0
 40
0
 41
0
  0
VERTEX
  8
0
 10
5.62765
 20
7.51882
 30
0.0
 40
0
 41
0
  0
VERTEX
  8
0
 10
5.63678
 20
7.47689
 30
0.0
 40
0
 41
0
  0
SEQEND
 8
0
  0
POLYLINE
  8
0
 62
     254
 66
     1
 10
0
 20
0
 30
0.0
 70
     1
 40
0
 41
0
  0
VERTEX
  8
0
 10
5.62765
 20
7.51882
 30
0.0
 40
0
 41
0
  0
VERTEX
  8
0
 10
6.12765
 20
7.26882
 30
0.0
 40
0
 41
0
  0
VERTEX
  8
0
 10
6.11729
 20
7.31142
 30
0.0
 40
0
 41
0
  0
VERTEX
  8
0
 10
5.61729
 20
7.56142
 30
0.0
 40
0
 41
0
  0
VERTEX
  8
0
 10
5.62765
 20
7.51882
 30
0.0
 40
0
 41
0
  0
SEQEND
 8
0
  0
POLYLINE
  8
0
 62
     254
 66
     1
 10
0
 20
0
 30
0.0
 70
     1
 40
0
 41
0
  0
VERTEX
  8
0
 10
5.61729
 20
7.56142
 30
0.0
 40
0
 41
0
  0
VERTEX
  8
0
 10
6.11729
 20
7.31142
 30
0.0
 40
0
 41
0
  0
VERTEX
  8
0
 10
6.10553
 20
7.35471
 30
0.0
 40
0
 41
0
  0
VERTEX
  8
0
 10
5.60553
 20
7.60471
 30
0.0
 40
0
 41
0
  0
VERTEX
  8
0
 10
5.61729
 20
7.56142
 30
0.0
 40
0
 41
0
  0
SEQEND
 8
0
  0
POLYLINE
  8
0
 62
     254
 66
     1
 10
0
 20
0
 30
0.0
 70
     1
 40
0
 41
0
  0
VERTEX
  8
0
 10
5.60553
 20
7.60471
 30
0.0
 40
0
 41
0
  0
VERTEX
  8
0
 10
6.10553
 20
7.35471
 30
0.0
 40
0
 41
0
  0
VERTEX
  8
0
 10
6.0925
 20
7.3986
 30
0.0
 40
0
 41
0
  0
VERTEX
  8
0
 10
5.5925
 20
7.6486
 30
0.0
 40
0
 41
0
  0
VERTEX
  8
0
 10
5.60553
 20
7.60471
 30
0.0
 40
0
 41
0
  0
SEQEND
 8
0
  0
POLYLINE
  8
0
 62
     0
 66
     1
 10
0
 20
0
 30
0.0
 70
     1
 40
1.00006
 41
1.00006
  0
VERTEX
  8
0
 10
5.26861
 20
6.61361
 30
0.0
 40
0.0138897
 41
0.0138897
  0
VERTEX
  8
0
 10
5.76861
 20
6.36361
 30
0.0
 40
0.0138897
 41
0.0138897
  0
VERTEX
  8
0
 10
5.80479
 20
6.38292
 30
0.0
 40
0.0138897
 41
0.0138897
  0
VERTEX
  8
0
 10
5.83908
 20
6.40315
 30
0.0
 40
0.0138897
 41
0.0138897
  0
VERTEX
  8
0
 10
5.87158
 20
6.42437
 30
0.0
 40
0.0138897
 41
0.0138897
  0
VERTEX
  8
0
 10
5.90218
 20
6.44646
 30
0.0
 40
0.0138897
 41
0.0138897
  0
VERTEX
  8
0
 10
5.93099
 20
6.46946
 30
0.0
 40
0.0138897
 41
0.0138897
  0
VERTEX
  8
0
 10
5.95801
 20
6.49333
 30
0.0
 40
0.0138897
 41
0.0138897
  0
VERTEX
  8
0
 10
5.98329
 20
6.51812
 30
0.0
 40
0.0138897
 41
0.0138897
  0
VERTEX
  8
0
 10
6.00678
 20
6.54378
 30
0.0
 40
0.0138897
 41
0.0138897
  0
VERTEX
  8
0
 10
6.02854
 20
6.57032
 30
0.0
 40
0.0138897
 41
0.0138897
  0
VERTEX
  8
0
 10
6.04856
 20
6.59765
 30
0.0
 40
0.0138897
 41
0.0138897
  0
VERTEX
  8
0
 10
6.06689
 20
6.62592
 30
0.0
 40
0.0138897
 41
0.0138897
  0
VERTEX
  8
0
 10
6.08356
 20
6.655
 30
0.0
 40
0.0138897
 41
0.0138897
  0
VERTEX
  8
0
 10
6.09858
 20
6.6849
 30
0.0
 40
0.0138897
 41
0.0138897
  0
VERTEX
  8
0
 10
6.11193
 20
6.7156
 30
0.0
 40
0.0138897
 41
0.0138897
  0
VERTEX
  8
0
 10
6.12364
 20
6.74718
 30
0.0
 40
0.0138897
 41
0.0138897
  0
VERTEX
  8
0
 10
6.13379
 20
6.77951
 30
0.0
 40
0.0138897
 41
0.0138897
  0
VERTEX
  8
0
 10
6.14231
 20
6.81267
 30
0.0
 40
0.0138897
 41
0.0138897
  0
VERTEX
  8
0
 10
6.14925
 20
6.84657
 30
0.0
 40
0.0138897
 41
0.0138897
  0
VERTEX
  8
0
 10
6.15468
 20
6.88124
 30
0.0
 40
0.0138897
 41
0.0138897
  0
VERTEX
  8
0
 10
6.15858
 20
6.91672
 30
0.0
 40
0.0138897
 41
0.0138897
  0
VERTEX
  8
0
 10
6.16097
 20
6.95296
 30
0.0
 40
0.0138897
 41
0.0138897
  0
VERTEX
  8
0
 10
6.16183
 20
6.9899
 30
0.0
 40
0.0138897
 41
0.0138897
  0
VERTEX
  8
0
 10
6.16124
 20
7.02761
 30
0.0
 40
0.0138897
 41
0.0138897
  0
VERTEX
  8
0
 10
6.15918
 20
7.06603
 30
0.0
 40
0.0138897
 41
0.0138897
  0
VERTEX
  8
0
 10
6.15565
 20
7.10519
 30
0.0
 40
0.0138897
 41
0.0138897
  0
VERTEX
  8
0
 10
6.15076
 20
7.14507
 30
0.0
 40
0.0138897
 41
0.0138897
  0
VERTEX
  8
0
 10
6.14442
 20
7.1856
 30
0.0
 40
0.0138897
 41
0.0138897
  0
VERTEX
  8
0
 10
6.13678
 20
7.22689
 30
0.0
 40
0.0138897
 41
0.0138897
  0
VERTEX
  8
0
 10
6.12765
 20
7.26882
 30
0.0
 40
0.0138897
 41
0.0138897
  0
VERTEX
  8
0
 10
6.11729
 20
7.31142
 30
0.0
 40
0.0138897
 41
0.0138897
  0
VERTEX
  8
0
 10
6.10553
 20
7.35471
 30
0.0
 40
0.0138897
 41
0.0138897
  0
VERTEX
  8
0
 10
6.0925
 20
7.3986
 30
0.0
 40
0.0138897
 41
0.0138897
  0
VERTEX
  8
0
 10
5.5925
 20
7.6486
 30
0.0
 40
0.0138897
 41
0.0138897
  0
VERTEX
  8
0
 10
5.60553
 20
7.60471
 30
0.0
 40
0.0138897
 41
0.0138897
  0
VERTEX
  8
0
 10
5.61729
 20
7.56142
 30
0.0
 40
0.0138897
 41
0.0138897
  0
VERTEX
  8
0
 10
5.62765
 20
7.51882
 30
0.0
 40
0.0138897
 41
0.0138897
  0
VERTEX
  8
0
 10
5.63678
 20
7.47689
 30
0.0
 40
0.0138897
 41
0.0138897
  0
VERTEX
  8
0
 10
5.64442
 20
7.4356
 30
0.0
 40
0.0138897
 41
0.0138897
  0
VERTEX
  8
0
 10
5.65076
 20
7.39507
 30
0.0
 40
0.0138897
 41
0.0138897
  0
VERTEX
  8
0
 10
5.65565
 20
7.35519
 30
0.0
 40
0.0138897
 41
0.0138897
  0
VERTEX
  8
0
 10
5.65918
 20
7.31603
 30
0.0
 40
0.0138897
 41
0.0138897
  0
VERTEX
  8
0
 10
5.66124
 20
7.27761
 30
0.0
 40
0.0138897
 41
0.0138897
  0
VERTEX
  8
0
 10
5.66183
 20
7.2399
 30
0.0
 40
0.0138897
 41
0.0138897
  0
VERTEX
  8
0
 10
5.66097
 20
7.2029
 30
0.0
 40
0.0138897
 41
0.0138897
  0
VERTEX
  8
0
 10
5.65858
 20
7.16672
 30
0.0
 40
0.0138897
 41
0.0138897
  0
VERTEX
  8
0
 10
5.65468
 20
7.13124
 30
0.0
 40
0.0138897
 41
0.0138897
  0
VERTEX
  8
0
 10
5.64925
 20
7.09657
 30
0.0
 40
0.0138897
 41
0.0138897
  0
VERTEX
  8
0
 10
5.64231
 20
7.06261
 30
0.0
 40
0.0138897
 41
0.0138897
  0
VERTEX
  8
0
 10
5.63379
 20
7.02951
 30
0.0
 40
0.0138897
 41
0.0138897
  0
VERTEX
  8
0
 10
5.62364
 20
6.99718
 30
0.0
 40
0.0138897
 41
0.0138897
  0
VERTEX
  8
0
 10
5.61193
 20
6.9656
 30
0.0
 40
0.0138897
 41
0.0138897
  0
VERTEX
  8
0
 10
5.59858
 20
6.9349
 30
0.0
 40
0.0138897
 41
0.0138897
  0
VERTEX
  8
0
 10
5.58356
 20
6.905
 30
0.0
 40
0.0138897
 41
0.0138897
  0
VERTEX
  8
0
 10
5.56689
 20
6.87592
 30
0.0
 40
0.0138897
 41
0.0138897
  0
VERTEX
  8
0
 10
5.54856
 20
6.84765
 30
0.0
 40
0.0138897
 41
0.0138897
  0
VERTEX
  8
0
 10
5.52854
 20
6.82032
 30
0.0
 40
0.0138897
 41
0.0138897
  0
VERTEX
  8
0
 10
5.50678
 20
6.79378
 30
0.0
 40
0.0138897
 41
0.0138897
  0
VERTEX
  8
0
 10
5.48329
 20
6.76812
 30
0.0
 40
0.0138897
 41
0.0138897
  0
VERTEX
  8
0
 10
5.45801
 20
6.74333
 30
0.0
 40
0.0138897
 41
0.0138897
  0
VERTEX
  8
0
 10
5.43099
 20
6.71946
 30
0.0
 40
0.0138897
 41
0.0138897
  0
VERTEX
  8
0
 10
5.40218
 20
6.69646
 30
0.0
 40
0.0138897
 41
0.0138897
  0
VERTEX
  8
0
 10
5.37158
 20
6.67437
 30
0.0
 40
0.0138897
 41
0.0138897
  0
VERTEX
  8
0
 10
5.33908
 20
6.65315
 30
0.0
 40
0.0138897
 41
0.0138897
  0
VERTEX
  8
0
 10
5.30479
 20
6.63292
 30
0.0
 40
0.0138897
 41
0.0138897
  0
VERTEX
  8
0
 10
5.26861
 20
6.61361
 30
0.0
 40
0.0138897
 41
0.0138897
  0
SEQEND
 8
0
  0
POLYLINE
  8
0
 62
     9
 66
     1
 10
0
 20
0
 30
0.0
 70
     1
 40
0
 41
0
  0
VERTEX
  8
0
 10
5.5925
 20
7.6486
 30
0.0
 40
0
 41
0
  0
VERTEX
  8
0
 10
6.0925
 20
7.3986
 30
0.0
 40
0
 41
0
  0
VERTEX
  8
0
 10
6.24001
 20
7.44515
 30
0.0
 40
0
 41
0
  0
VERTEX
  8
0
 10
5.74001
 20
7.69515
 30
0.0
 40
0
 41
0
  0
VERTEX
  8
0
 10
5.5925
 20
7.6486
 30
0.0
 40
0
 41
0
  0
SEQEND
 8
0
  0
POLYLINE
  8
0
 62
     253
 66
     1
 10
0
 20
0
 30
0.0
 70
     1
 40
0
 41
0
  0
VERTEX
  8
0
 10
5.74001
 20
7.69515
 30
0.0
 40
0
 41
0
  0
VERTEX
  8
0
 10
6.24001
 20
7.44515
 30
0.0
 40
0
 41
0
  0
VERTEX
  8
0
 10
6.37056
 20
7.49718
 30
0.0
 40
0
 41
0
  0
VERTEX
  8
0
 10
5.87056
 20
7.74718
 30
0.0
 40
0
 41
0
  0
VERTEX
  8
0
 10
5.74001
 20
7.69515
 30
0.0
 40
0
 41
0
  0
SEQEND
 8
0
  0
POLYLINE
  8
0
 62
     253
 66
     1
 10
0
 20
0
 30
0.0
 70
     1
 40
0
 41
0
  0
VERTEX
  8
0
 10
5.87056
 20
7.74718
 30
0.0
 40
0
 41
0
  0
VERTEX
  8
0
 10
6.37056
 20
7.49718
 30
0.0
 40
0
 41
0
  0
VERTEX
  8
0
 10
6.48529
 20
7.55436
 30
0.0
 40
0
 41
0
  0
VERTEX
  8
0
 10
5.98529
 20
7.80436
 30
0.0
 40
0
 41
0
  0
VERTEX
  8
0
 10
5.87056
 20
7.74718
 30
0.0
 40
0
 41
0
  0
SEQEND
 8
0
  0
POLYLINE
  8
0
 62
     253
 66
     1
 10
0
 20
0
 30
0.0
 70
     1
 40
0
 41
0
  0
VERTEX
  8
0
 10
5.98529
 20
7.80436
 30
0.0
 40
0
 41
0
  0
VERTEX
  8
0
 10
6.48529
 20
7.55436
 30
0.0
 40
0
 41
0
  0
VERTEX
  8
0
 10
6.58535
 20
7.61643
 30
0.0
 40
0
 41
0
  0
VERTEX
  8
0
 10
6.08535
 20
7.86643
 30
0.0
 40
0
 41
0
  0
VERTEX
  8
0
 10
5.98529
 20
7.80436
 30
0.0
 40
0
 41
0
  0
SEQEND
 8
0
  0
POLYLINE
  8
0
 62
     254
 66
     1
 10
0
 20
0
 30
0.0
 70
     1
 40
0
 41
0
  0
VERTEX
  8
0
 10
6.08535
 20
7.86643
 30
0.0
 40
0
 41
0
  0
VERTEX
  8
0
 10
6.58535
 20
7.61643
 30
0.0
 40
0
 41
0
  0
VERTEX
  8
0
 10
6.67193
 20
7.68294
 30
0.0
 40
0
 41
0
  0
VERTEX
  8
0
 10
6.17193
 20
7.93294
 30
0.0
 40
0
 41
0
  0
VERTEX
  8
0
 10
6.08535
 20
7.86643
 30
0.0
 40
0
 41
0
  0
SEQEND
 8
0
  0
POLYLINE
  8
0
 62
     254
 66
     1
 10
0
 20
0
 30
0.0
 70
     1
 40
0
 41
0
  0
VERTEX
  8
0
 10
6.17193
 20
7.93294
 30
0.0
 40
0
 41
0
  0
VERTEX
  8
0
 10
6.67193
 20
7.68294
 30
0.0
 40
0
 41
0
  0
VERTEX
  8
0
 10
6.74615
 20
7.75369
 30
0.0
 40
0
 41
0
  0
VERTEX
  8
0
 10
6.24615
 20
8.00369
 30
0.0
 40
0
 41
0
  0
VERTEX
  8
0
 10
6.17193
 20
7.93294
 30
0.0
 40
0
 41
0
  0
SEQEND
 8
0
  0
POLYLINE
  8
0
 62
     254
 66
     1
 10
0
 20
0
 30
0.0
 70
     1
 40
0
 41
0
  0
VERTEX
  8
0
 10
6.24615
 20
8.00369
 30
0.0
 40
0
 41
0
  0
VERTEX
  8
0
 10
6.74615
 20
7.75369
 30
0.0
 40
0
 41
0
  0
VERTEX
  8
0
 10
6.80919
 20
7.82824
 30
0.0
 40
0
 41
0
  0
VERTEX
  8
0
 10
6.30919
 20
8.07824
 30
0.0
 40
0
 41
0
  0
VERTEX
  8
0
 10
6.24615
 20
8.00369
 30
0.0
 40
0
 41
0
  0
SEQEND
 8
0
  0
POLYLINE
  8
0
 62
     254
 66
     1
 10
0
 20
0
 30
0.0
 70
     1
 40
0
 41
0
  0
VERTEX
  8
0
 10
6.30919
 20
8.07824
 30
0.0
 40
0
 41
0
  0
VERTEX
  8
0
 10
6.80919
 20
7.82824
 30
0.0
 40
0
 41
0
  0
VERTEX
  8
0
 10
6.86219
 20
7.90625
 30
0.0
 40
0
 41
0
  0
VERTEX
  8
0
 10
6.36219
 20
8.15625
 30
0.0
 40
0
 41
0
  0
VERTEX
  8
0
 10
6.30919
 20
8.07824
 30
0.0
 40
0
 41
0
  0
SEQEND
 8
0
  0
POLYLINE
  8
0
 62
     254
 66
     1
 10
0
 20
0
 30
0.0
 70
     1
 40
0
 41
0
  0
VERTEX
  8
0
 10
6.36219
 20
8.15625
 30
0.0
 40
0
 41
0
  0
VERTEX
  8
0
 10
6.86219
 20
7.90625
 30
0.0
 40
0
 41
0
  0
VERTEX
  8
0
 10
6.90631
 20
7.98747
 30
0.0
 40
0
 41
0
  0
VERTEX
  8
0
 10
6.40631
 20
8.23747
 30
0.0
 40
0
 41
0
  0
VERTEX
  8
0
 10
6.36219
 20
8.15625
 30
0.0
 40
0
 41
0
  0
SEQEND
 8
0
  0
POLYLINE
  8
0
 62
     254
 66
     1
 10
0
 20
0
 30
0.0
 70
     1
 40
0
 41
0
  0
VERTEX
  8
0
 10
6.40631
 20
8.23747
 30
0.0
 40
0
 41
0
  0
VERTEX
  8
0
 10
6.90631
 20
7.98747
 30
0.0
 40
0
 41
0
  0
VERTEX
  8
0
 10
6.94265
 20
8.0715
 30
0.0
 40
0
 41
0
  0
VERTEX
  8
0
 10
6.44265
 20
8.3215
 30
0.0
 40
0
 41
0
  0
VERTEX
  8
0
 10
6.40631
 20
8.23747
 30
0.0
 40
0
 41
0
  0
SEQEND
 8
0
  0
POLYLINE
  8
0
 62
     254
 66
     1
 10
0
 20
0
 30
0.0
 70
     1
 40
0
 41
0
  0
VERTEX
  8
0
 10
6.44265
 20
8.3215
 30
0.0
 40
0
 41
0
  0
VERTEX
  8
0
 10
6.94265
 20
8.0715
 30
0.0
 40
0
 41
0
  0
VERTEX
  8
0
 10
6.9725
 20
8.15799
 30
0.0
 40
0
 41
0
  0
VERTEX
  8
0
 10
6.4725
 20
8.40799
 30
0.0
 40
0
 41
0
  0
VERTEX
  8
0
 10
6.44265
 20
8.3215
 30
0.0
 40
0
 41
0
  0
SEQEND
 8
0
  0
POLYLINE
  8
0
 62
     254
 66
     1
 10
0
 20
0
 30
0.0
 70
     1
 40
0
 41
0
  0
VERTEX
  8
0
 10
6.4725
 20
8.40799
 30
0.0
 40
0
 41
0
  0
VERTEX
  8
0
 10
6.9725
 20
8.15799
 30
0.0
 40
0
 41
0
  0
VERTEX
  8
0
 10
6.99685
 20
8.24669
 30
0.0
 40
0
 41
0
  0
VERTEX
  8
0
 10
6.49685
 20
8.49669
 30
0.0
 40
0
 41
0
  0
VERTEX
  8
0
 10
6.4725
 20
8.40799
 30
0.0
 40
0
 41
0
  0
SEQEND
 8
0
  0
POLYLINE
  8
0
 62
     254
 66
     1
 10
0
 20
0
 30
0.0
 70
     1
 40
0
 41
0
  0
VERTEX
  8
0
 10
6.49685
 20
8.49669
 30
0.0
 40
0
 41
0
  0
VERTEX
  8
0
 10
6.99685
 20
8.24669
 30
0.0
 40
0
 41
0
  0
VERTEX
  8
0
 10
7.01699
 20
8.33718
 30
0.0
 40
0
 41
0
  0
VERTEX
  8
0
 10
6.51699
 20
8.58718
 30
0.0
 40
0
 41
0
  0
VERTEX
  8
0
 10
6.49685
 20
8.49669
 30
0.0
 40
0
 41
0
  0
SEQEND
 8
0
  0
POLYLINE
  8
0
 62
     254
 66
     1
 10
0
 20
0
 30
0.0
 70
     1
 40
0
 41
0
  0
VERTEX
  8
0
 10
6.51699
 20
8.58718
 30
0.0
 40
0
 41
0
  0
VERTEX
  8
0
 10
7.01699
 20
8.33718
 30
0.0
 40
0
 41
0
  0
VERTEX
  8
0
 10
7.03401
 20
8.42919
 30
0.0
 40
0
 41
0
  0
VERTEX
  8
0
 10
6.53401
 20
8.67919
 30
0.0
 40
0
 41
0
  0
VERTEX
  8
0
 10
6.51699
 20
8.58718
 30
0.0
 40
0
 41
0
  0
SEQEND
 8
0
  0
POLYLINE
  8
0
 62
     254
 66
     1
 10
0
 20
0
 30
0.0
 70
     1
 40
0
 41
0
  0
VERTEX
  8
0
 10
6.53401
 20
8.67919
 30
0.0
 40
0
 41
0
  0
VERTEX
  8
0
 10
7.03401
 20
8.42919
 30
0.0
 40
0
 41
0
  0
VERTEX
  8
0
 10
7.04904
 20
8.52235
 30
0.0
 40
0
 41
0
  0
VERTEX
  8
0
 10
6.54904
 20
8.77235
 30
0.0
 40
0
 41
0
  0
VERTEX
  8
0
 10
6.53401
 20
8.67919
 30
0.0
 40
0
 41
0
  0
SEQEND
 8
0
  0
POLYLINE
  8
0
 62
     254
 66
     1
 10
0
 20
0
 30
0.0
 70
     1
 40
0
 41
0
  0
VERTEX
  8
0
 10
6.54904
 20
8.77235
 30
0.0
 40
0
 41
0
  0
VERTEX
  8
0
 10
7.04904
 20
8.52235
 30
0.0
 40
0
 41
0
  0
VERTEX
  8
0
 10
7.06332
 20
8.61632
 30
0.0
 40
0
 41
0
  0
VERTEX
  8
0
 10
6.56332
 20
8.86632
 30
0.0
 40
0
 41
0
  0
VERTEX
  8
0
 10
6.54904
 20
8.77235
 30
0.0
 40
0
 41
0
  0
SEQEND
 8
0
  0
POLYLINE
  8
0
 62
     254
 66
     1
 10
0
 20
0
 30
0.0
 70
     1
 40
0
 41
0
  0
VERTEX
  8
0
 10
6.56332
 20
8.86632
 30
0.0
 40
0
 41
0
  0
VERTEX
  8
0
 10
7.06332
 20
8.61632
 30
0.0
 40
0
 41
0
  0
VERTEX
  8
0
 10
7.0779
 20
8.71078
 30
0.0
 40
0
 41
0
  0
VERTEX
  8
0
 10
6.5779
 20
8.96078
 30
0.0
 40
0
 41
0
  0
VERTEX
  8
0
 10
6.56332
 20
8.86632
 30
0.0
 40
0
 41
0
  0
SEQEND
 8
0
  0
POLYLINE
  8
0
 62
     254
 66
     1
 10
0
 20
0
 30
0.0
 70
     1
 40
0
 41
0
  0
VERTEX
  8
0
 10
6.5779
 20
8.96078
 30
0.0
 40
0
 41
0
  0
VERTEX
  8
0
 10
7.0779
 20
8.71078
 30
0.0
 40
0
 41
0
  0
VERTEX
  8
0
 10
7.09403
 20
8.80533
 30
0.0
 40
0
 41
0
  0
VERTEX
  8
0
 10
6.59403
 20
9.05533
 30
0.0
 40
0
 41
0
  0
VERTEX
  8
0
 10
6.5779
 20
8.96078
 30
0.0
 40
0
 41
0
  0
SEQEND
 8
0
  0
POLYLINE
  8
0
 62
     254
 66
     1
 10
0
 20
0
 30
0.0
 70
     1
 40
0
 41
0
  0
VERTEX
  8
0
 10
6.59403
 20
9.05533
 30
0.0
 40
0
 41
0
  0
VERTEX
  8
0
 10
7.09403
 20
8.80533
 30
0.0
 40
0
 41
0
  0
VERTEX
  8
0
 10
7.11279
 20
8.89979
 30
0.0
 40
0
 41
0
  0
VERTEX
  8
0
 10
6.61279
 20
9.14974
 30
0.0
 40
0
 41
0
  0
VERTEX
  8
0
 10
6.59403
 20
9.05533
 30
0.0
 40
0
 41
0
  0
SEQEND
 8
0
  0
POLYLINE
  8
0
 62
     254
 66
     1
 10
0
 20
0
 30
0.0
 70
     1
 40
0
 41
0
  0
VERTEX
  8
0
 10
6.61279
 20
9.14974
 30
0.0
 40
0
 41
0
  0
VERTEX
  8
0
 10
7.11279
 20
8.89979
 30
0.0
 40
0
 41
0
  0
VERTEX
  8
0
 10
7.13542
 20
8.99365
 30
0.0
 40
0
 41
0
  0
VERTEX
  8
0
 10
6.63542
 20
9.24365
 30
0.0
 40
0
 41
0
  0
VERTEX
  8
0
 10
6.61279
 20
9.14974
 30
0.0
 40
0
 41
0
  0
SEQEND
 8
0
  0
POLYLINE
  8
0
 62
     254
 66
     1
 10
0
 20
0
 30
0.0
 70
     1
 40
0
 41
0
  0
VERTEX
  8
0
 10
6.63542
 20
9.24365
 30
0.0
 40
0
 41
0
  0
VERTEX
  8
0
 10
7.13542
 20
8.99365
 30
0.0
 40
0
 41
0
  0
VERTEX
  8
0
 10
7.16297
 20
9.08669
 30
0.0
 40
0
 41
0
  0
VERTEX
  8
0
 10
6.66297
 20
9.33669
 30
0.0
 40
0
 41
0
  0
VERTEX
  8
0
 10
6.63542
 20
9.24365
 30
0.0
 40
0
 41
0
  0
SEQEND
 8
0
  0
POLYLINE
  8
0
 62
     254
 66
     1
 10
0
 20
0
 30
0.0
 70
     1
 40
0
 41
0
  0
VERTEX
  8
0
 10
6.66297
 20
9.33669
 30
0.0
 40
0
 41
0
  0
VERTEX
  8
0
 10
7.16297
 20
9.08669
 30
0.0
 40
0
 41
0
  0
VERTEX
  8
0
 10
7.19667
 20
9.17854
 30
0.0
 40
0
 41
0
  0
VERTEX
  8
0
 10
6.69667
 20
9.42854
 30
0.0
 40
0
 41
0
  0
VERTEX
  8
0
 10
6.66297
 20
9.33669
 30
0.0
 40
0
 41
0
  0
SEQEND
 8
0
  0
POLYLINE
  8
0
 62
     254
 66
     1
 10
0
 20
0
 30
0.0
 70
     1
 40
0
 41
0
  0
VERTEX
  8
0
 10
6.69667
 20
9.42854
 30
0.0
 40
0
 41
0
  0
VERTEX
  8
0
 10
7.19667
 20
9.17854
 30
0.0
 40
0
 41
0
  0
VERTEX
  8
0
 10
7.23763
 20
9.26888
 30
0.0
 40
0
 41
0
  0
VERTEX
  8
0
 10
6.73763
 20
9.51888
 30
0.0
 40
0
 41
0
  0
VERTEX
  8
0
 10
6.69667
 20
9.42854
 30
0.0
 40
0
 41
0
  0
SEQEND
 8
0
  0
POLYLINE
  8
0
 62
     254
 66
     1
 10
0
 20
0
 30
0.0
 70
     1
 40
0
 41
0
  0
VERTEX
  8
0
 10
6.73763
 20
9.51888
 30
0.0
 40
0
 41
0
  0
VERTEX
  8
0
 10
7.23763
 20
9.26888
 30
0.0
 40
0
 41
0
  0
VERTEX
  8
0
 10
7.28706
 20
9.35732
 30
0.0
 40
0
 41
0
  0
VERTEX
  8
0
 10
6.78706
 20
9.60732
 30
0.0
 40
0
 41
0
  0
VERTEX
  8
0
 10
6.73763
 20
9.51888
 30
0.0
 40
0
 41
0
  0
SEQEND
 8
0
  0
POLYLINE
  8
0
 62
     254
 66
     1
 10
0
 20
0
 30
0.0
 70
     1
 40
0
 41
0
  0
VERTEX
  8
0
 10
6.78706
 20
9.60732
 30
0.0
 40
0
 41
0
  0
VERTEX
  8
0
 10
7.28706
 20
9.35732
 30
0.0
 40
0
 41
0
  0
VERTEX
  8
0
 10
7.34608
 20
9.44358
 30
0.0
 40
0
 41
0
  0
VERTEX
  8
0
 10
6.84608
 20
9.69358
 30
0.0
 40
0
 41
0
  0
VERTEX
  8
0
 10
6.78706
 20
9.60732
 30
0.0
 40
0
 41
0
  0
SEQEND
 8
0
  0
POLYLINE
  8
0
 62
     254
 66
     1
 10
0
 20
0
 30
0.0
 70
     1
 40
0
 41
0
  0
VERTEX
  8
0
 10
6.84608
 20
9.69358
 30
0.0
 40
0
 41
0
  0
VERTEX
  8
0
 10
7.34608
 20
9.44358
 30
0.0
 40
0
 41
0
  0
VERTEX
  8
0
 10
7.41581
 20
9.52729
 30
0.0
 40
0
 41
0
  0
VERTEX
  8
0
 10
6.91581
 20
9.77729
 30
0.0
 40
0
 41
0
  0
VERTEX
  8
0
 10
6.84608
 20
9.69358
 30
0.0
 40
0
 41
0
  0
SEQEND
 8
0
  0
POLYLINE
  8
0
 62
     254
 66
     1
 10
0
 20
0
 30
0.0
 70
     1
 40
0
 41
0
  0
VERTEX
  8
0
 10
6.91581
 20
9.77729
 30
0.0
 40
0
 41
0
  0
VERTEX
  8
0
 10
7.41581
 20
9.52729
 30
0.0
 40
0
 41
0
  0
VERTEX
  8
0
 10
7.49744
 20
9.60818
 30
0.0
 40
0
 41
0
  0
VERTEX
  8
0
 10
6.99744
 20
9.85818
 30
0.0
 40
0
 41
0
  0
VERTEX
  8
0
 10
6.91581
 20
9.77729
 30
0.0
 40
0
 41
0
  0
SEQEND
 8
0
  0
POLYLINE
  8
0
 62
     254
 66
     1
 10
0
 20
0
 30
0.0
 70
     1
 40
0
 41
0
  0
VERTEX
  8
0
 10
6.99744
 20
9.85818
 30
0.0
 40
0
 41
0
  0
VERTEX
  8
0
 10
7.49744
 20
9.60818
 30
0.0
 40
0
 41
0
  0
VERTEX
  8
0
 10
7.59218
 20
9.68582
 30
0.0
 40
0
 41
0
  0
VERTEX
  8
0
 10
7.09218
 20
9.93582
 30
0.0
 40
0
 41
0
  0
VERTEX
  8
0
 10
6.99744
 20
9.85818
 30
0.0
 40
0
 41
0
  0
SEQEND
 8
0
  0
POLYLINE
  8
0
 62
     33
 66
     1
 10
0
 20
0
 30
0.0
 70
     1
 40
0
 41
0
  0
VERTEX
  8
0
 10
7.09218
 20
9.93582
 30
0.0
 40
0
 41
0
  0
VERTEX
  8
0
 10
7.59218
 20
9.68582
 30
0.0
 40
0
 41
0
  0
VERTEX
  8
0
 10
7.70107
 20
9.75999
 30
0.0
 40
0
 41
0
  0
VERTEX
  8
0
 10
7.20107
 20
10.01
 30
0.0
 40
0
 41
0
  0
VERTEX
  8
0
 10
7.09218
 20
9.93582
 30
0.0
 40
0
 41
0
  0
SEQEND
 8
0
  0
POLYLINE
  8
0
 62
     253
 66
     1
 10
0
 20
0
 30
0.0
 70
     1
 40
0
 41
0
  0
VERTEX
  8
0
 10
7.20107
 20
10.01
 30
0.0
 40
0
 41
0
  0
VERTEX
  8
0
 10
7.70107
 20
9.75999
 30
0.0
 40
0
 41
0
  0
VERTEX
  8
0
 10
7.82536
 20
9.83024
 30
0.0
 40
0
 41
0
  0
VERTEX
  8
0
 10
7.32536
 20
10.0802
 30
0.0
 40
0
 41
0
  0
VERTEX
  8
0
 10
7.20107
 20
10.01
 30
0.0
 40
0
 41
0
  0
SEQEND
 8
0
  0
POLYLINE
  8
0
 62
     253
 66
     1
 10
0
 20
0
 30
0.0
 70
     1
 40
0
 41
0
  0
VERTEX
  8
0
 10
7.32536
 20
10.0802
 30
0.0
 40
0
 41
0
  0
VERTEX
  8
0
 10
7.82536
 20
9.83024
 30
0.0
 40
0
 41
0
  0
VERTEX
  8
0
 10
7.96615
 20
9.89632
 30
0.0
 40
0
 41
0
  0
VERTEX
  8
0
 10
7.46615
 20
10.1463
 30
0.0
 40
0
 41
0
  0
VERTEX
  8
0
 10
7.32536
 20
10.0802
 30
0.0
 40
0
 41
0
  0
SEQEND
 8
0
  0
POLYLINE
  8
0
 62
     253
 66
     1
 10
0
 20
0
 30
0.0
 70
     1
 40
0
 41
0
  0
VERTEX
  8
0
 10
7.46615
 20
10.1463
 30
0.0
 40
0
 41
0
  0
VERTEX
  8
0
 10
7.96615
 20
9.89632
 30
0.0
 40
0
 41
0
  0
VERTEX
  8
0
 10
8.12463
 20
9.95785
 30
0.0
 40
0
 41
0
  0
VERTEX
  8
0
 10
7.62463
 20
10.2078
 30
0.0
 40
0
 41
0
  0
VERTEX
  8
0
 10
7.46615
 20
10.1463
 30
0.0
 40
0
 41
0
  0
SEQEND
 8
0
  0
POLYLINE
  8
0
 62
     0
 66
     1
 10
0
 20
0
 30
0.0
 70
     1
 40
1.00006
 41
1.00006
  0
VERTEX
  8
0
 10
5.5925
 20
7.6486
 30
0.0
 40
0.0138897
 41
0.0138897
  0
VERTEX
  8
0
 10
6.0925
 20
7.3986
 30
0.0
 40
0.0138897
 41
0.0138897
  0
VERTEX
  8
0
 10
6.24001
 20
7.44515
 30
0.0
 40
0.0138897
 41
0.0138897
  0
VERTEX
  8
0
 10
6.37056
 20
7.49718
 30
0.0
 40
0.0138897
 41
0.0138897
  0
VERTEX
  8
0
 10
6.48529
 20
7.55436
 30
0.0
 40
0.0138897
 41
0.0138897
  0
VERTEX
  8
0
 10
6.58535
 20
7.61643
 30
0.0
 40
0.0138897
 41
0.0138897
  0
VERTEX
  8
0
 10
6.67193
 20
7.68294
 30
0.0
 40
0.0138897
 41
0.0138897
  0
VERTEX
  8
0
 10
6.74615
 20
7.75369
 30
0.0
 40
0.0138897
 41
0.0138897
  0
VERTEX
  8
0
 10
6.80919
 20
7.82824
 30
0.0
 40
0.0138897
 41
0.0138897
  0
VERTEX
  8
0
 10
6.86219
 20
7.90625
 30
0.0
 40
0.0138897
 41
0.0138897
  0
VERTEX
  8
0
 10
6.90631
 20
7.98747
 30
0.0
 40
0.0138897
 41
0.0138897
  0
VERTEX
  8
0
 10
6.94265
 20
8.0715
 30
0.0
 40
0.0138897
 41
0.0138897
  0
VERTEX
  8
0
 10
6.9725
 20
8.15799
 30
0.0
 40
0.0138897
 41
0.0138897
  0
VERTEX
  8
0
 10
6.99685
 20
8.24669
 30
0.0
 40
0.0138897
 41
0.0138897
  0
VERTEX
  8
0
 10
7.01699
 20
8.33718
 30
0.0
 40
0.0138897
 41
0.0138897
  0
VERTEX
  8
0
 10
7.03401
 20
8.42919
 30
0.0
 40
0.0138897
 41
0.0138897
  0
VERTEX
  8
0
 10
7.04904
 20
8.52235
 30
0.0
 40
0.0138897
 41
0.0138897
  0
VERTEX
  8
0
 10
7.06332
 20
8.61632
 30
0.0
 40
0.0138897
 41
0.0138897
  0
VERTEX
  8
0
 10
7.0779
 20
8.71078
 30
0.0
 40
0.0138897
 41
0.0138897
  0
VERTEX
  8
0
 10
7.09403
 20
8.80533
 30
0.0
 40
0.0138897
 41
0.0138897
  0
VERTEX
  8
0
 10
7.11279
 20
8.89979
 30
0.0
 40
0.0138897
 41
0.0138897
  0
VERTEX
  8
0
 10
7.13542
 20
8.99365
 30
0.0
 40
0.0138897
 41
0.0138897
  0
VERTEX
  8
0
 10
7.16297
 20
9.08669
 30
0.0
 40
0.0138897
 41
0.0138897
  0
VERTEX
  8
0
 10
7.19667
 20
9.17854
 30
0.0
 40
0.0138897
 41
0.0138897
  0
VERTEX
  8
0
 10
7.23763
 20
9.26888
 30
0.0
 40
0.0138897
 41
0.0138897
  0
VERTEX
  8
0
 10
7.28706
 20
9.35732
 30
0.0
 40
0.0138897
 41
0.0138897
  0
VERTEX
  8
0
 10
7.34608
 20
9.44358
 30
0.0
 40
0.0138897
 41
0.0138897
  0
VERTEX
  8
0
 10
7.41581
 20
9.52729
 30
0.0
 40
0.0138897
 41
0.0138897
  0
VERTEX
  8
0
 10
7.49744
 20
9.60818
 30
0.0
 40
0.0138897
 41
0.0138897
  0
VERTEX
  8
0
 10
7.59218
 20
9.68582
 30
0.0
 40
0.0138897
 41
0.0138897
  0
VERTEX
  8
0
 10
7.70107
 20
9.75999
 30
0.0
 40
0.0138897
 41
0.0138897
  0
VERTEX
  8
0
 10
7.82536
 20
9.83024
 30
0.0
 40
0.0138897
 41
0.0138897
  0
VERTEX
  8
0
 10
7.96615
 20
9.89632
 30
0.0
 40
0.0138897
 41
0.0138897
  0
VERTEX
  8
0
 10
8.12463
 20
9.95785
 30
0.0
 40
0.0138897
 41
0.0138897
  0
VERTEX
  8
0
 10
7.62463
 20
10.2078
 30
0.0
 40
0.0138897
 41
0.0138897
  0
VERTEX
  8
0
 10
7.46615
 20
10.1463
 30
0.0
 40
0.0138897
 41
0.0138897
  0
VERTEX
  8
0
 10
7.32536
 20
10.0802
 30
0.0
 40
0.0138897
 41
0.0138897
  0
VERTEX
  8
0
 10
7.20107
 20
10.01
 30
0.0
 40
0.0138897
 41
0.0138897
  0
VERTEX
  8
0
 10
7.09218
 20
9.93582
 30
0.0
 40
0.0138897
 41
0.0138897
  0
VERTEX
  8
0
 10
6.99744
 20
9.85818
 30
0.0
 40
0.0138897
 41
0.0138897
  0
VERTEX
  8
0
 10
6.91581
 20
9.77729
 30
0.0
 40
0.0138897
 41
0.0138897
  0
VERTEX
  8
0
 10
6.84608
 20
9.69358
 30
0.0
 40
0.0138897
 41
0.0138897
  0
VERTEX
  8
0
 10
6.78706
 20
9.60732
 30
0.0
 40
0.0138897
 41
0.0138897
  0
VERTEX
  8
0
 10
6.73763
 20
9.51888
 30
0.0
 40
0.0138897
 41
0.0138897
  0
VERTEX
  8
0
 10
6.69667
 20
9.42854
 30
0.0
 40
0.0138897
 41
0.0138897
  0
VERTEX
  8
0
 10
6.66297
 20
9.33669
 30
0.0
 40
0.0138897
 41
0.0138897
  0
VERTEX
  8
0
 10
6.63542
 20
9.24365
 30
0.0
 40
0.0138897
 41
0.0138897
  0
VERTEX
  8
0
 10
6.61279
 20
9.14974
 30
0.0
 40
0.0138897
 41
0.0138897
  0
VERTEX
  8
0
 10
6.59403
 20
9.05533
 30
0.0
 40
0.0138897
 41
0.0138897
  0
VERTEX
  8
0
 10
6.5779
 20
8.96078
 30
0.0
 40
0.0138897
 41
0.0138897
  0
VERTEX
  8
0
 10
6.56332
 20
8.86632
 30
0.0
 40
0.0138897
 41
0.0138897
  0
VERTEX
  8
0
 10
6.54904
 20
8.77235
 30
0.0
 40
0.0138897
 41
0.0138897
  0
VERTEX
  8
0
 10
6.53401
 20
8.67919
 30
0.0
 40
0.0138897
 41
0.0138897
  0
VERTEX
  8
0
 10
6.51699
 20
8.58718
 30
0.0
 40
0.0138897
 41
0.0138897
  0
VERTEX
  8
0
 10
6.49685
 20
8.49669
 30
0.0
 40
0.0138897
 41
0.0138897
  0
VERTEX
  8
0
 10
6.4725
 20
8.40799
 30
0.0
 40
0.0138897
 41
0.0138897
  0
VERTEX
  8
0
 10
6.44265
 20
8.3215
 30
0.0
 40
0.0138897
 41
0.0138897
  0
VERTEX
  8
0
 10
6.40631
 20
8.23747
 30
0.0
 40
0.0138897
 41
0.0138897
  0
VERTEX
  8
0
 10
6.36219
 20
8.15625
 30
0.0
 40
0.0138897
 41
0.0138897
  0
VERTEX
  8
0
 10
6.30919
 20
8.07824
 30
0.0
 40
0.0138897
 41
0.0138897
  0
VERTEX
  8
0
 10
6.24615
 20
8.00369
 30
0.0
 40
0.0138897
 41
0.0138897
  0
VERTEX
  8
0
 10
6.17193
 20
7.93294
 30
0.0
 40
0.0138897
 41
0.0138897
  0
VERTEX
  8
0
 10
6.08535
 20
7.86643
 30
0.0
 40
0.0138897
 41
0.0138897
  0
VERTEX
  8
0
 10
5.98529
 20
7.80436
 30
0.0
 40
0.0138897
 41
0.0138897
  0
VERTEX
  8
0
 10
5.87056
 20
7.74718
 30
0.0
 40
0.0138897
 41
0.0138897
  0
VERTEX
  8
0
 10
5.74001
 20
7.69515
 30
0.0
 40
0.0138897
 41
0.0138897
  0
VERTEX
  8
0
 10
5.5925
 20
7.6486
 30
0.0
 40
0.0138897
 41
0.0138897
  0
SEQEND
 8
0
  0
POLYLINE
  8
0
 62
     254
 66
     1
 10
0
 20
0
 30
0.0
 70
     1
 40
0
 41
0
  0
VERTEX
  8
0
 10
7.62463
 20
10.2078
 30
0.0
 40
0
 41
0
  0
VERTEX
  8
0
 10
8.12463
 20
9.95785
 30
0.0
 40
0
 41
0
  0
VERTEX
  8
0
 10
8.12463
 20
10.2754
 30
0.0
 40
0
 41
0
  0
VERTEX
  8
0
 10
7.62463
 20
10.5254
 30
0.0
 40
0
 41
0
  0
VERTEX
  8
0
 10
7.62463
 20
10.2078
 30
0.0
 40
0
 41
0
  0
SEQEND
 8
0
  0
POLYLINE
  8
0
 62
     0
 66
     1
 10
0
 20
0
 30
0.0
 70
     1
 40
1.00006
 41
1.00006
  0
VERTEX
  8
0
 10
7.62463
 20
10.2078
 30
0.0
 40
0.0138897
 41
0.0138897
  0
VERTEX
  8
0
 10
8.12463
 20
9.95785
 30
0.0
 40
0.0138897
 41
0.0138897
  0
VERTEX
  8
0
 10
8.12463
 20
10.2754
 30
0.0
 40
0.0138897
 41
0.0138897
  0
VERTEX
  8
0
 10
7.62463
 20
10.5254
 30
0.0
 40
0.0138897
 41
0.0138897
  0
VERTEX
  8
0
 10
7.62463
 20
10.2078
 30
0.0
 40
0.0138897
 41
0.0138897
  0
SEQEND
 8
0
  0
POLYLINE
  8
0
 62
     253
 66
     1
 10
0
 20
0
 30
0.0
 70
     1
 40
0
 41
0
  0
VERTEX
  8
0
 10
4.49387
 20
6.41661
 30
0.0
 40
0
 41
0
  0
VERTEX
  8
0
 10
4.49387
 20
5.99744
 30
0.0
 40
0
 41
0
  0
VERTEX
  8
0
 10
4.93842
 20
5.99744
 30
0.0
 40
0
 41
0
  0
VERTEX
  8
0
 10
4.93685
 20
6.03575
 30
0.0
 40
0
 41
0
  0
VERTEX
  8
0
 10
4.95171
 20
6.15142
 30
0.0
 40
0
 41
0
  0
VERTEX
  8
0
 10
5.00825
 20
6.27376
 30
0.0
 40
0
 41
0
  0
VERTEX
  8
0
 10
5.11236
 20
6.36111
 30
0.0
 40
0
 41
0
  0
VERTEX
  8
0
 10
5.22857
 20
6.40397
 30
0.0
 40
0
 41
0
  0
VERTEX
  8
0
 10
5.26861
 20
6.41026
 30
0.0
 40
0
 41
0
  0
VERTEX
  8
0
 10
5.26861
 20
6.61361
 30
0.0
 40
0
 41
0
  0
VERTEX
  8
0
 10
5.3035
 20
6.63135
 30
0.0
 40
0
 41
0
  0
VERTEX
  8
0
 10
5.40213
 20
6.69646
 30
0.0
 40
0
 41
0
  0
VERTEX
  8
0
 10
5.50672
 20
6.79378
 30
0.0
 40
0
 41
0
  0
VERTEX
  8
0
 10
5.58356
 20
6.905
 30
0.0
 40
0
 41
0
  0
VERTEX
  8
0
 10
5.63374
 20
7.02951
 30
0.0
 40
0
 41
0
  0
VERTEX
  8
0
 10
5.65858
 20
7.16672
 30
0.0
 40
0
 41
0
  0
VERTEX
  8
0
 10
5.65918
 20
7.31608
 30
0.0
 40
0
 41
0
  0
VERTEX
  8
0
 10
5.63672
 20
7.47689
 30
0.0
 40
0
 41
0
  0
VERTEX
  8
0
 10
5.60558
 20
7.60633
 30
0.0
 40
0
 41
0
  0
VERTEX
  8
0
 10
5.5925
 20
7.6486
 30
0.0
 40
0
 41
0
  0
VERTEX
  8
0
 10
5.66336
 20
7.6684
 30
0.0
 40
0
 41
0
  0
VERTEX
  8
0
 10
5.87056
 20
7.74718
 30
0.0
 40
0
 41
0
  0
VERTEX
  8
0
 10
6.08535
 20
7.86643
 30
0.0
 40
0
 41
0
  0
VERTEX
  8
0
 10
6.24615
 20
8.00369
 30
0.0
 40
0
 41
0
  0
VERTEX
  8
0
 10
6.36214
 20
8.15625
 30
0.0
 40
0
 41
0
  0
VERTEX
  8
0
 10
6.44265
 20
8.3215
 30
0.0
 40
0
 41
0
  0
VERTEX
  8
0
 10
6.49685
 20
8.49669
 30
0.0
 40
0
 41
0
  0
VERTEX
  8
0
 10
6.53396
 20
8.67919
 30
0.0
 40
0
 41
0
  0
VERTEX
  8
0
 10
6.56332
 20
8.86632
 30
0.0
 40
0
 41
0
  0
VERTEX
  8
0
 10
6.59403
 20
9.05533
 30
0.0
 40
0
 41
0
  0
VERTEX
  8
0
 10
6.63536
 20
9.24365
 30
0.0
 40
0
 41
0
  0
VERTEX
  8
0
 10
6.69667
 20
9.42854
 30
0.0
 40
0
 41
0
  0
VERTEX
  8
0
 10
6.78706
 20
9.60732
 30
0.0
 40
0
 41
0
  0
VERTEX
  8
0
 10
6.91581
 20
9.77729
 30
0.0
 40
0
 41
0
  0
VERTEX
  8
0
 10
7.09212
 20
9.93582
 30
0.0
 40
0
 41
0
  0
VERTEX
  8
0
 10
7.32536
 20
10.0802
 30
0.0
 40
0
 41
0
  0
VERTEX
  8
0
 10
7.54807
 20
10.1808
 30
0.0
 40
0
 41
0
  0
VERTEX
  8
0
 10
7.62463
 20
10.2078
 30
0.0
 40
0
 41
0
  0
VERTEX
  8
0
 10
7.62463
 20
10.5254
 30
0.0
 40
0
 41
0
  0
VERTEX
  8
0
 10
6.98324
 20
10.4936
 30
0.0
 40
0
 41
0
  0
VERTEX
  8
0
 10
4.49387
 20
6.41661
 30
0.0
 40
0
 41
0
  0
SEQEND
 8
0
  0
POLYLINE
  8
0
 62
     0
 66
     1
 10
0
 20
0
 30
0.0
 70
     1
 40
1.00006
 41
1.00006
  0
VERTEX
  8
0
 10
4.49387
 20
6.41661
 30
0.0
 40
0.0138897
 41
0.0138897
  0
VERTEX
  8
0
 10
4.49387
 20
5.99744
 30
0.0
 40
0.0138897
 41
0.0138897
  0
VERTEX
  8
0
 10
4.93842
 20
5.99744
 30
0.0
 40
0.0138897
 41
0.0138897
  0
VERTEX
  8
0
 10
4.93685
 20
6.03575
 30
0.0
 40
0.0138897
 41
0.0138897
  0
VERTEX
  8
0
 10
4.95171
 20
6.15142
 30
0.0
 40
0.0138897
 41
0.0138897
  0
VERTEX
  8
0
 10
5.00825
 20
6.27376
 30
0.0
 40
0.0138897
 41
0.0138897
  0
VERTEX
  8
0
 10
5.11236
 20
6.36111
 30
0.0
 40
0.0138897
 41
0.0138897
  0
VERTEX
  8
0
 10
5.22857
 20
6.40397
 30
0.0
 40
0.0138897
 41
0.0138897
  0
VERTEX
  8
0
 10
5.26861
 20
6.41026
 30
0.0
 40
0.0138897
 41
0.0138897
  0
VERTEX
  8
0
 10
5.26861
 20
6.61361
 30
0.0
 40
0.0138897
 41
0.0138897
  0
VERTEX
  8
0
 10
5.3035
 20
6.63135
 30
0.0
 40
0.0138897
 41
0.0138897
  0
VERTEX
  8
0
 10
5.40213
 20
6.69646
 30
0.0
 40
0.0138897
 41
0.0138897
  0
VERTEX
  8
0
 10
5.50672
 20
6.79378
 30
0.0
 40
0.0138897
 41
0.0138897
  0
VERTEX
  8
0
 10
5.58356
 20
6.905
 30
0.0
 40
0.0138897
 41
0.0138897
  0
VERTEX
  8
0
 10
5.63374
 20
7.02951
 30
0.0
 40
0.0138897
 41
0.0138897
  0
VERTEX
  8
0
 10
5.65858
 20
7.16672
 30
0.0
 40
0.0138897
 41
0.0138897
  0
VERTEX
  8
0
 10
5.65918
 20
7.31608
 30
0.0
 40
0.0138897
 41
0.0138897
  0
VERTEX
  8
0
 10
5.63672
 20
7.47689
 30
0.0
 40
0.0138897
 41
0.0138897
  0
VERTEX
  8
0
 10
5.60558
 20
7.60633
 30
0.0
 40
0.0138897
 41
0.0138897
  0
VERTEX
  8
0
 10
5.5925
 20
7.6486
 30
0.0
 40
0.0138897
 41
0.0138897
  0
VERTEX
  8
0
 10
5.66336
 20
7.6684
 30
0.0
 40
0.0138897
 41
0.0138897
  0
VERTEX
  8
0
 10
5.87056
 20
7.74718
 30
0.0
 40
0.0138897
 41
0.0138897
  0
VERTEX
  8
0
 10
6.08535
 20
7.86643
 30
0.0
 40
0.0138897
 41
0.0138897
  0
VERTEX
  8
0
 10
6.24615
 20
8.00369
 30
0.0
 40
0.0138897
 41
0.0138897
  0
VERTEX
  8
0
 10
6.36214
 20
8.15625
 30
0.0
 40
0.0138897
 41
0.0138897
  0
VERTEX
  8
0
 10
6.44265
 20
8.3215
 30
0.0
 40
0.0138897
 41
0.0138897
  0
VERTEX
  8
0
 10
6.49685
 20
8.49669
 30
0.0
 40
0.0138897
 41
0.0138897
  0
VERTEX
  8
0
 10
6.53396
 20
8.67919
 30
0.0
 40
0.0138897
 41
0.0138897
  0
VERTEX
  8
0
 10
6.56332
 20
8.86632
 30
0.0
 40
0.0138897
 41
0.0138897
  0
VERTEX
  8
0
 10
6.59403
 20
9.05533
 30
0.0
 40
0.0138897
 41
0.0138897
  0
VERTEX
  8
0
 10
6.63536
 20
9.24365
 30
0.0
 40
0.0138897
 41
0.0138897
  0
VERTEX
  8
0
 10
6.69667
 20
9.42854
 30
0.0
 40
0.0138897
 41
0.0138897
  0
VERTEX
  8
0
 10
6.78706
 20
9.60732
 30
0.0
 40
0.0138897
 41
0.0138897
  0
VERTEX
  8
0
 10
6.91581
 20
9.77729
 30
0.0
 40
0.0138897
 41
0.0138897
  0
VERTEX
  8
0
 10
7.09212
 20
9.93582
 30
0.0
 40
0.0138897
 41
0.0138897
  0
VERTEX
  8
0
 10
7.32536
 20
10.0802
 30
0.0
 40
0.0138897
 41
0.0138897
  0
VERTEX
  8
0
 10
7.54807
 20
10.1808
 30
0.0
 40
0.0138897
 41
0.0138897
  0
VERTEX
  8
0
 10
7.62463
 20
10.2078
 30
0.0
 40
0.0138897
 41
0.0138897
  0
VERTEX
  8
0
 10
7.62463
 20
10.5254
 30
0.0
 40
0.0138897
 41
0.0138897
  0
VERTEX
  8
0
 10
6.98324
 20
10.4936
 30
0.0
 40
0.0138897
 41
0.0138897
  0
VERTEX
  8
0
 10
4.49387
 20
6.41661
 30
0.0
 40
0.0138897
 41
0.0138897
  0
SEQEND
 8
0
  0
ENDSEC
  0
EOF
